Ven, Ven Espíritu Divino

Intro de Guitarra
Fig. 1   (2 veces)

6----------------------2-2-5----------------
5---2-2--5---2-2--5----------4-5-4-5-4------
4----------4---------4----------------------
3-------------------------------------------
2-------------------------------------------
1-------------------------------------------

Fig. 2   (2 veces)

6-----------------------2-2---5--------------
5----2-2--5----------------------4-5-4-5-4---
4------------4-5-4-5-4-----------------------
3--------------------------------------------
2--------------------------------------------
1--------------------------------------------

Fig. 3 (1 veces)

6---------------------------------------------
5--2-2--5----2-2--5-----2-2--5----2-2--5------
4---------4---------4----------4---------4----
3---------------------------------------------
2---------------------------------------------
1---------------------------------------------

Fig. 4 

6-----------------------------
5-----2-2--0--2---------------
4-----------------------------
3-----------------------------
2-----------------------------
1-----------------------------



Fig. 1, 2, 3.

Sim			        Fa#m7
Ven, ven, ven, Espíritu Divino
			     Bm/ Fig. 4
Ven, ven, ven, acércate a mí.
Sim			       Fa#m7
Ven, ven, ven, Espíritu Divino
			
      Sim    Sim7
Ven, ven, ven, acércate a mí.

	   Mim	        Sim           Fa#m7	              Sim     Sim7
Apodérate, apodérate, apodérate  de todo mi ser.
 	   Mim	        Sim           Fa#m7	              Sim
Apodérate, apodérate, apodérate de todo mi ser.

Fig. 1 , 2, 3.

Sim			        Fa#m7
Ven, ven, ven, Espíritu Divino
			     Bm/ fig.4
Ven, ven, ven, acércate a mí.
Sim			       Fa#m7
Ven, ven, ven, Espíritu Divino
      Sim    Sim7
Ven, ven, ven, acércate a mí.

	   Mim	        Sim           Fa#m7	              Sim     Sim7
Apodérate, apodérate, apodérate  de todo mi ser.
 	   Mim	        Sim           Fa#m7	              Sim
Apodérate, apodérate, apodérate de todo mi ser.


			Fa#m7         Sim
Aquí se siente la presencia de Dios.
Fa#m7         Sim
Aquí se siente la presencia de Dios.

	      Mim			 Sim
Siento el Fuego del Espíritu Santo,
     Mim			 Sim
Siento el Fuego del Espíritu Santo.
			Fa#m7		              
Siento gozo siento paz, siento el amor 
                Sim
que mi Dios me da,
			Fa#m7		              
siento gozo siento paz, siento el amor
                Sim
que mi Dios me da

Fa#m7         Sim
Aquí se siente la presencia de Dios,
Fa#m7         Sim
Aquí se siente la presencia de Dios,

Final
Fig.1, 2, 3.