Esta no es más que una transcripción 
idéntica de la anterior, pero en otro tono.
Quizá les pueda ayudar el tab del ritmo.


Ritmo:
E--------------------
A--0-----------------
D--------------------
G-----0-----0--0-----
B-------0--------0---
e---------0----------


Do            Lam
Mi corazón, mi mente,
Fa             Sol
mi cuerpo y mi ser.
Do       Lam    Fa   Sol
Te doy, Señor, tomalo.
   Fa      Sol
Te doy mi cuerpo,
Do    Do/Si    Lam
un sacrificio vivo,
Fa       Sol      Do
Señor, tomalo, aceptalo.

Final:

Acorde de Do, h=hammer.

E--------------
A--3---------0-
D--------------
G---0-0-0---0--
B----1---0h1-0-
e------0-------


Notas:

El puente de Do-Do/Si-Lam se escucha muy bien de la siguiente manera:
     Do    Do/Si    Lam
E---------!------!-------
A---3---3-!-2----!-0-----
D---------!------!-------
G----0-0--!--0-0-!--2-2--
B-----1---!---1--!---2---
e---------!------!-----0-

Do/Si.

E--0--
A--2--
D--0--
G--0--
B--1--
e--0--

Los acordes de Fa y Sol los pueden reemplazar por los siguientes,
también se escucha muy bien:

   Fa    Sol
E--0------0---
A--3------5---
D--3------5---
G--2------4---
B--1------3---
e--0------0---

Dudas o comentarios: vetoperez@hotmail.com