E---------------------|
b---------------------|
g------0-2-4-2-1-2-4--|


E---0-0---------------|--0-0-0-------
b-------4-2-4-2-1/2---|--------2-----
g---------------------|----------4---
                   x2

<----estribillo-------->
E-----------------------|------------
b---3-2-3---3-2-3-------|------------
g---------2-------4-----|---4--4-2---
                      x3


En el mar he oído hoy,
Señor, tu voz que me llamó y me pidió
que me entregara a mis hermanos.
Esa voz me transformó,
mi vida entera ya cambió
y solo pienso ahora Señor en repetirte:


ESTRIBILLO
Padre nuestro, en Ti creemos,
Padre nuestro, Te ofrecemos,
Padre nuestro, nuestras manos
de hermanos.



Cuando vaya a otros lugares
tendré yo que abandonar
a mi familia a mis amigos por seguirte.
Pero sé que así, algún día
podré enseñar tu Verdad
a mi hermano y junto a él yo repetirte.


ESTA CANCION VA DECICADA Al HALCÓN.