ACORDES:> D A Bm F#m G A7

Es la primera cansión que subo, esta bien espero que les guste!

Intro:

e||--10--10--------------------------------------||
B||----------13--11--11--10--------------11--13--||
G||--------------------------12--12--10----------||
D||----------------------------------------------||
A||----------------------------------------------||
E||----------------------------------------------||

e||--10--10--------------------------------------------------||
B||----------13--13--11--11--10--10----------11--10--13--11--||
G||----------------------------------10--12------------------||
D||----------------------------------------------------------||
A||----------------------------------------------------------||
E||----------------------------------------------------------||

Re      La  Sim      Fa#m

LLévame  a tus pies

Sol   Re     La7

En adoración

Re    La     Sim    Fa#m       Sol

Sacrificios y alabanza, Jesús

  La         Re

Te ofrezco hoy.


Re            La           Sim

Con todo mi ser te quiero

            Fa#m         Sol

Con todo mi ser te amo

             Re              La

Con todo mi ser te doy mi amor

Re            La            Sim

Con todo mi ser te quiero

            Fa#m         Sol

Con todo mi ser te amo

             La              Re

Con todo mi ser te doy mi amor

--------------------------------------------------
--------------------------------------------------

Y ya esto es todo lo que se repite en la cansión.
Salu2

Nikki

---------------------------------------------------
---------------------------------------------------