ACORDES:> Dm A G D7

Bueno esta es una cancion muy bonita. Intentando buscar en internet no
se encuentra tan facilmente, es mas, no se encuentra entonces me propuse
ha hacer un nuevo artista y colocar alli los canticos mas conocidos,
para tocarlos en nuestra iglesia...
bueno disfruten de la cancion, no es dificil de tocar en guitarra por lo
menos. ahi va...

Intro:
   Rem
E-------1------------1----------1-----1----
A---------3-------------3---------3---3----
D-----2-----------2-----------2-------2----
G---0-----------0--------—--0---------0----
B------------------------------------------
E------------------------------------------

Este ultimo se toca normal, un rasgueo hacia abajo y luego comienza
la cancion.



Rem
Cuando el pueblo de Dios ora
        La
suceden cosas,suceden cosas
       Rem
maravillosas.


Rem
Cuando el pueblo de Dios ora
        La
suceden cosas,suceden cosas
       Rem
maravillosas.

Coro:

         Sol             Rem
Hay sanidad hay salvacion
     A                           Rem- Re7
y se siente las presencia del señor
         Sol             Rem
Hay sanidad hay salvacion
     La                           Rem
y se siente las presencia del señor





Rem
Cuando el pueblo de Dios ora
        La
suceden cosas,suceden cosas
       Rem
maravillosas.


Rem
Cuando el pueblo de Dios ora
        La
suceden cosas,suceden cosas
       Rem
maravillosas.



Coro:

         Sol             Rem
Hay sanidad hay salvacion
     A                           Rem- Re7
y se siente las presencia del señor
         Sol             Rem
Hay sanidad hay salvacion
     La                           Rem
y se siente las presencia del señor


Cuando el pueblo de Dios ora.


   Rem
E----1---------1------------1----------1-----1----
A-------2--------3-------------3---------3---3----
D------------2-----------2-----------2-------2----
G----------0-----------0--------—--0---------0----
B-------------------------------------------------
E-------------------------------------------------