Intro:
C , Am, Dm, G7,

e-8-8-8-8-8-10-8-7-5--5-5-5-5-5-7-5-----------
B-----------------------------------8-6-------
G---------------------------------------------
D---------------------------------------------
A---------------------------------------------
E---------------------------------------------

e-----------------------------5-7-8-----------
B-6-6-6-6-6-8-6-5-6-6-6-6-6-8-----------------
G---------------------------------------------
D---------------------------------------------
A---------------------------------------------
E---------------------------------------------

Do                  Lam           
Quiero cantar una linda cancion
       Rem                 Sol7     
de un hombre que me transformo
Do                  Lam
quiero cantar una linda cancion
    Rem                 Sol7
de aquel que mi vida cambio.

      Do        Lam
Es mi amigo Jesus
        Rem          Sol7
es mi amigo el mas fiel
       Do          Lam    
el es dios, el el rey
     Rem        Sol7
es amor de verdad

        Do         Lam
Solo en el, encontre
    Rem          Sol7
esa paz que busque
        Do        Lam   
solo en el encontre
      Dm/G7/C     Am    Dm    G7
la feli-ci-da a a a a a a a a ad.

Do                 Lam             
Solo en Cristo respuesta encontre
      Rem              Sol7
a las dudas de mi corazon,
Do                 Lam             
Solo en Cristo respuesta encontre
      Rem              Sol7
a las dudas de mi corazon

      Do       Lam
El es mi salvador,
      Rem       Sol7
el es mi redentor
      Do           Lam 
el es Dios, el es rey
   Rem         Sol7
es amor de verdad

       Do         Lam
Solo en el, encontre
    Rem          Sol7
esa paz que busque
        Do        Lam   
solo en el encontre
      Dm/G7/C     Am    Dm    G7
la feli-ci-da a a a a a a a a ad.


Esta cancio se la dedico atodos mis amigos
de Acapulco,a Yazmin que la quiero mucho,
pero sobre todo a una persona que me ah ayudado
mucho en todo momento, a mi mejor amigo,JESUS.