ACORDES:> E A C#m B7 G#m E7 B

Instrumental:

-------------------0-----------
-------2----4----2-0-----------
-1-2-4-2----4----2-1-----------
-2-2-2-2----4----2-2-----------
-2-2-2-0----2----0-2-----------
-0-0-0-------------0-----------

          E     A              E  (A)
América América, la tierra sin fin
          Mi     La             Mi   Do#m
América América, ya estamos aquí
           La           Si7
Aquí donde el sol nace
            E    (G#m)  C#m
Donde los sueños son verdad
        La            Si7
Todo es posible en América

          E     A          E  (A)
América América, gigante país
          Mi     La              Mi
América América, ya estamos aquí
           Do#m   La   Sol#m
Donde la gente ríe
           E        (G#m)  C#m
De costa a costa el cielo azul
        La            Si7    Mi  Mi7
Todo es posible en América

           La  Si             Sol#m
Hay que seguir este largo viaje
   Do#m   La Si            Mi  Mi7
Si no, aquí yo me quedaría
      La  Si             Sol#m             Do#m
Y después cuando esta aventura acabe bien
    La             Si  Si7
Quiero volver a América


Instrumental:

-------------------0-----------
-------2----4----2-0-----------
-1-2-4-2----4----2-1-----------
-2-2-2-2----4----2-2-----------
-2-2-2-0----2----0-2-----------
-0-0-0-------------0-----------

          E     A              E  (A)
América América, la tierra sin fin
          Mi     La             Mi   Do#m
América América, ya estamos aquí
           La           Si7
Aquí donde el sol nace
            E    (G#m)  C#m
Donde los sueños son verdad
        La            Si7     Mi  Mi7
Todo es posible en América

           La  Si             Sol#m
Hay que seguir este largo viaje
   Do#m   La Si            Mi  Mi7
Si no, aquí yo me quedaría
      La  Si             Sol#m             Do#m
Y después cuando esta aventura acabe bien
    La             Si  Si7
Quiero volver a América


Instrumental:

-------------------0-----------
-------2----4----2-0-----------
-1-2-4-2----4----2-1-----------
-2-2-2-2----4----2-2-----------
-2-2-2-0----2----0-2-----------
-0-0-0-------------0-----------

          E     A          E  (A)
América América, gigante país
          Mi     La              Mi
América América, ya estamos aquí
           Do#m   La   Sol#m
Donde la gente ríe
           E        (G#m)  C#m
De costa a costa el cielo azul
        La            Si7    Mi
Todo es posible en América


Instrumental:

-------------------4-----------
-------2----4----2-5-----------
-1-2-4-2----4----2-4-----------
-2-2-2-2----4----2-6-----------
-2-2-2-0----2----0-7-----------
-0-0-0-------------x-----------


Dedicada a ese gran continente.
Creo que la canción la hizo el grupo Mocedades.
Para sugerencias o emails de amor: javi__mlg@hotmail.com
Gracias! :)