Esta cancion toda esta tocada en quintas.

Intro
e--------------------
b-----8-10-12-10-8-8-
g---9----------------
d--------------------
a--------------------
E--------------------

 Sol                         Re
Hombres, Viejas, Mujeres, Cansilleres, las Vedets
 Mi                              Do
chimpances, los jokeys, niños, los corpiños

 Sol                       Re
Tarotistas, celulares, Champignions, Bolas de fraile
Mi                      Do
alicates, esqueletos, postes de Luz

 Sol                        Re
Camaritas, Viejos Punks, sushis, los tucanes
 Mi                   Do
las Peras maduras, edificios, cuadros kitch

 Sol                      Re
Calzonsillos, mimos, la Venus de Milo,
 Mi                      Do
cataratas, microondas, pelados con onda

(Tocar esto durante el Coro)
e---------------------------------------------
b-------8-10-12---8-10-12-10-8---8-10-12-10-8-
g-7-7-9---------9--------------9--------------
d---------------------------------------------
a---------------------------------------------
E---------------------------------------------
En esto estamos juntos, (¡Vamos!)
aguanta Argentina la copa del mundo

 Sol                      Re
Muñecos de plastilina, las secretarias de magos,
 Mi                        Do
vendedores de hot-dogs y tambien esos hot-dogs

(Aqui va un como Riff
 que mas o menos creo
 va algo como asi:
 G-A-B-C

 Sol                        Re
Caracoles, huevos duros, los malos actores
  Mi                      Do
chupetes, narices y las livings tambien.

 Sol                            Re
Conductores de Infomercials, maniquies, microchips
 Mi                       Do
bigotes, compact discs, los zapatos de bowling

 Sol                         Re
Cocodrilos, las parteras, aceitunas, flippers, medias
  Mi                     Do
treintañeros con acne, sombras, saquitos de té

 Sol                         Re
Los yeties, ajies, yesos, los cocacoleros,
Mi                            Do
estatuas, cartas, palmeras, nadie queda fuera.

e---------------------------------------------
b-------8-10-12---8-10-12-10-8---8-10-12-10-8-
g-7-7-9---------9--------------9--------------
d---------------------------------------------
a---------------------------------------------
E---------------------------------------------
En esto estamos juntos, (¡Vamos!)
aguanta Argentina la copa del mundo