Pues he visto que en otra parte de esta página alguien ha puesto la transcripcion 
de esta canción. Decidí intentarlo y así es como me suena a mi.

Las notas con "()" hay que mantenerlas por un rato

**INTRO 2 VECES**

E|----------------------------------------------------------------------------|
B|----------------------------------------------------------------------------|
G|----------------------------------------------------------------------------|
D|----0-----------------------------------------------------------------------|
A|-0----6-(7)-----------------------------------------------------------------|
D|-----------------(7)--(0)---------------------------------------------------|

**TEMA PRINCIPAL**

E|----------------------------------------------------------------------------|
B|----------------------------------------------------------------------------|
G|----------------------------------------------------------------------------|
D|----0-----------------------------------------10--9---------9--(8)----------|
A|-0---6-(7)-----9--(10)----6--7----9--10------------10-----------------------|
D|------------------------------------------------------11--------------------|

E|----------------------------------------------------------------------------|
B|----------------------------------------------------------------------------|
G|----------------------------------------------------------------------------|
D|----------------------------------------------------------------------------|
A|-10--7-------7--(7)---(Aquí pueden hacer un Slide de 7 a 0)-----------------|
D|---------10-----------------------------------------------------------------|

E|----------------------------------------------------------------------------|
B|----------------------------------------------------------------------------|
G|-----------------------------------------------------------------9-(8)------|
D|----0-----------------------------------------10--9---------9---------------|
A|-0---6-(7)-----9--(10)----6--7----9--10------------10-----------------------|
D|----------------------------------------------------------------------------|

E|----------------------------------------------------------------------------|
B|----------------------------------------------------------------------------|
G|----------------------------------------------------------------------------|
D|----0-----------------------------------------10--9---------9--(8)----------|
A|-0---6-(7)-----9--(10)----6--7----9--10------------10-----------------------|
D|------------------------------------------------------11--------------------|

E|----------------------------------------------------------------------------|
B|----------------------------------------------------------------------------|
G|----------------------------------------------------------------------------|
D|----------------------------------------------------------------------------|
A|-10--7-------7--(7)---(Aquí pueden hacer un Slide de 7 a 0)-----------------|
D|---------10-----------------------------------------------------------------|

**FINAL**

E|----------------------------------------------------------------------------|
B|--------------------------9--7----------------------------------------------|
G|---------------------------------9--7-----------7--7--7--7------------------|
D|----0----------------------------------10--7--------------------------------|
A|-0----6-(7)-----------------------------------------------------------------|
D|----------------------------------------------------------------------------|

E|----------------------------------------------------------------------------|
B|----------------------------------------------------------------------------|
G|----------------------------------------------------------------------------|
D|----------------------------------------------------------------------------|
A|-10--7-------7--(7)---(Aquí pueden hacer un Slide de 7 a 0)-----------------|
D|---------10-----------------------------------------------------------------|

Pues ahí está, nomas por si a alguien le interesa.