Advertencia : Para que no cambien de posición los acordes de esta
transcripción al momento de copiarla, debes seleccionar la fuente
*Courier New*, así, no tendrás que estar arreglando el texto para
ejecutar correctamente la canción.

          _____________________
         |                     |
         |      ESMERALDA      |
         |   Versión Original  |
         |_____________________|

=INTRO=
    Fa         Sol         Fa         Sol
E-------5-- ------7-- ------5-- ------7--
B-----6---- ----8---- ----6---- ----8----
G---5------ --7------ --5------ --7------
E---------- --------- --------- ---------
A---------- --------- --------- ---------
E---------- --------- --------- ---------

=ESTROFA 1=
      Do              Sol
 ESMERALDA... EN TUS OJOS...
    Fa          Rem          Sol
 LA NOCHE Y EL DÍA... UNO SON.
      Do                 Sol
 ESMERALDA... FLOR DEL CAMPO...
     Fa         Rem           Do    Do7
 ME VES CON LA LUZ DEL CORAZÓN...

=ESTROFA 2=
      Fa      Sol            Do    Lam
 ESMERALDA(AMOR)... ESMERALDA(AMOR)...
Fa           Rem            Sol
 TU AMOR ES PURO COMO EL SOL...
      Fa      Sol           Do     Lam
 ESMERALDA(AMOR)... ESMERALDA(AMOR)...
Fa           Rem         Do    Do7
 TIENES LOS OJOS DEL AMOR...

=ESTROFA 3=
Sol     Do               Sol
 ESMERALDA... SON TUS OJOS...
    Fa           Rem             Sol
 ESTRELLAS QUE ALUMBRAN MI CANCIÓN
      Do                 Sol
 ESMERALDA... FLOR DEL CAMPO..
     Fa        Rem          Do    Do7
 QUISIERA QUE VIERAS COMO YO...

=ESTROFA 4=
      Fa      Sol            Do    Lam
 ESMERALDA(AMOR)... ESMERALDA(AMOR)...
Fa          Rem           Sol
 ME LLENAS TODO EL CORAZÓN...
      Fa      Sol            Do    Lam
 ESMERALDA(AMOR)... ESMERALDA(AMOR)...
Fa           Rem         Do    Do7
 TIENES LOS OJOS DEL AMOR...

=CORO=
Sol     Do           Sol
 ESMERALDAAAHAAAHAAA...
                                  Fa
           E--0-1-3--5-3--------7-8----
           B------------------------6--
           G---------------------------
           D---------------------------
           A---------------------------
           E---------------------------
                          Sol                                        Lam
E-------------8-----------7--------7-7--------10------------3-2-0-----
B--8-10-8---8--10-8---8-10-10-8--10---10-8--10--10-12-10---------3-1--
G--------10--------10-----------------------------------12------------
D---------------------------------------------------------------------
A---------------------------------------------------------------------
E---------------------------------------------------------------------

=PUENTE=
Lam                  Mim
 DE PRONTO ESTABAS AHÍ... BELLA...
  Sol        Fa
 BRILLANDO Y CON TU AMOR, TU DESNUDEZ,
 Sol
 SE PARTIÓ EN DOS... MI CORAZÓN...

=FINAL=
      Fa      Sol           Do      Lam
 ESMERALDA(AMOR)... ESMERALDAHAHA(AMOR)...
Fa           Rem            Sol
 TU AMOR ES PURO COMO EL SOL...
      Fa      Sol           Do     Lam
 ESMERALDA(AMOR)... ESMERALDA(AMOR)...
Fa           Rem         Do
 TIENES LOS OJOS DEL AMOR.....

=================================FIN=================================


Hola, me llamo Rodrigo, soy chileno, soy un cantante aficionado,
si tienes dudas, las que sean sobre esta canción, escríbeme a
rodrymicky@hotmail.com y un Saludo pal: Marco, Joc, Aarón, Karen,
Yesleine, Pamela, Maluto, Roerto, KuroChan, Lord Caoz, Chika Denisse,
a mi primo Jonathan (Sweet Revenge), a Jocelyn, a la Laura y a la
Claudita...

       +EN MEMORIA DE MI HERMANITA ANDREA SUSANA MUÑOZ ALARCÓN+
               (*Abril 20,1989 - Diciembre 10,2004+)
          'Que el Señor te tenga en su gloria hermanita mía'

                     'Que el Señor les Bendiga'
Abril 7, 2005                                  ...El último romántico
==========================www.aplicale.tk============================