Antes que nada, no sé por qué los administradores de
ATAME.ORG no aceptaron esta canción si Sakura ha sido
uno de los mayores éxitos en el mundo y además la 
Tablatura está muy completa, ni siquiera es cancionero,
es TABLATURA, en fin, espero que esta vez me lo acepten
porque hay mucha gente que quiere tocar este tema.


4/4


(Violines)
e|----0-1-3
B|1-3------
G|---------    <------ Esto lo hace muy rápido, cuando
D|---------            toca la nota de G, o sea el número
A|---------            3, empieza el teclado a hacer
E|---------            lo siguiente:



(Piano electrónico)
e|7-----6-6-8-5-------5-8-10-12-15
B|--8-5---------6---8-------------
G|----------------7---------------
D|--------------------------------  <----- Entran las
A|--------------------------------         trompetas en
E|--------------------------------         el número 15:



(Trompetas)
e|---------------------------------------
B|---------------------------------------
G|4-4-5-4-3-3-5-7-5-3-2-2-2-0-2-0-2-5-7-9
D|---------------------------------------
A|---------------------------------------
E|---------------------------------------

(Trompetas)
e|7-7-8-7-6-6-8-10-8-6-5-5-5-3-5-3-5-8-10-12
B|------------------------------------------
G|------------------------------------------
D|------------------------------------------
A|------------------------------------------
E|------------------------------------------

        C/B
Yo quisiera que supieras 
                      Fam       Sol
cuanto extraño tu presencia aquí 
       C/B
y no puedo, no me atrevo 
                         Fa    Mi7
es que si te veo no se que decir.

      Lam       
¿Porqué? (¿Porqué?) 
      Lam7
¿Porqué? (¿Porqué?) 
                   Mi7
Quiero volar contigo por el cielo,
 Lam              Fa
te daré mi amor solo a ti
           Sol
¡Quiero volar!.


(Coro)


         C/B                       F
Yo te atrapo, tú me atrapas para siempre 
 C/B             F
lo que quieras puedes pedirme.
         C/B                        F
no querrás hacer solo especial el tiempo.
 Mim               Mi7
Yo te esperaré y no te dejaré 
         Lam                         Fa
porque te amo, te amo, te amo, mi amor 
 G          C/B
¡Eres el mejor!.


(Trompetas)
e|---------------------------------------
B|---------------------------------------
G|4-4-5-4-3-3-5-7-5-3-2-2-2-0-2-0-2-5-7-9
D|---------------------------------------
A|---------------------------------------
E|---------------------------------------


(Trompetas)
e|7-7-8-7-6-6-8-10-8-6-5-5-5-3-5-3-5-8-10-12
B|------------------------------------------
G|------------------------------------------
D|------------------------------------------
A|------------------------------------------
E|------------------------------------------


        C/B
Yo quisiera que supieras 
                      Fam       Sol
cuanto extraño tu presencia aquí 
       C/B
y no puedo, no me atrevo 
                         Fa    Mi7
es que si te veo no se que decir.

      Lam       
¿Porqué? (¿Porqué?) 
      Lam7
¿Porqué? (¿Porqué?) 
                   Mi7
Quiero volar contigo por el cielo,
 Lam              Fa
te daré mi amor solo a ti
           Sol
¡Quiero volar!.


(Coro)


         C/B                       F
Yo te atrapo, tú me atrapas para siempre 
 C/B             F
lo que quieras puedes pedirme.
         C/B                        F
no querrás hacer solo especial el tiempo.
 Mim               Mi7
Yo te esperaré y no te dejaré 
         Lam                         Fa
porque te amo, te amo, te amo, mi amor 
 G          C/B
¡Eres el mejor!.


(Trompetas)
e|---------------------------------------
B|---------------------------------------
G|4-4-5-4-3-3-5-7-5-3-2-2-2-0-2-0-2-5-7-9
D|---------------------------------------
A|---------------------------------------
E|---------------------------------------


(Trompetas)
e|7-7-8-7-6-6-8-10-8-6-5-5-5-3-5-3-5-8-10-12
B|------------------------------------------
G|------------------------------------------
D|------------------------------------------
A|------------------------------------------
E|------------------------------------------


(Trompetas)
e|8
B|-
G|-
D|-
A|-
E|-