esta es la melodia que toca orfeo (siempre :P)en la saga de hades.
Lo puse 1 tono arriba porque resulta mas facil de tocar asi.
El intro es el que toca en la ova 18 y los acordes finales son
como los toca en la ova 16.

String nocturne 1 tono p/arriba
intro
E |------------------------------------------------------------------|
B |------------------------------------------------------------------|
G |--2--------------2---------------2---------0-----2---------0------|
D |--0-----2--3~----0-----2--3~-----0------3--------0------3---------|
A |-----0--------------0---------------0---2-----------0---2---------|
E |------------------------------------------------------------------|
     Dm                             Dm/B


E |----------------------------0-1-0---------------------------------|
B |--------------------------3-------3-------------------------------|
G |--2-2---2-3-2---2-3-2---2-----------2-3~----0-0---0-2-0----0-2-0--|
D |------------------------------------------------------------------|
A |------------------------------------------------------------------|
E |------------------------------------------------------------------|
                                         Solm


E |----0-1-3-0---------------------------------------------0-1-0---5-3~-|
B |------------------------------------------------------3-------3------|
G |--2---------2-0-------0-2---2-3-2---2-3-2---2-3-2---2----------------|
D |----------------3---3------------------------------------------------|
A |---------------------------------------------------------------------|
E |---------------------------------------------------------------------|
            La       Rem                                           Solm

E |-0-1-3~---3-5-3---3-5-3---3-5-3-----0-1---3----0----3----0----1-----|
B |------------------------------------------2----2----3----2----3-----|
G |------------------------------------------0----2----3----2----2-----|
D |------------------------------------------2----2----5----2----------|
A |----------------------------------------------------5---------------|
E |----------------------------------------------------3---------------|
                                          C#dim   A    Gm   A    Dm