ACORDES:> G Fm G7 Cm

Ojo! esta es la versión de mi pais,España
(Que,porcierto,es la mejor,je je)-Claro,porque rima
más que si no.¡VAMOS ALLÁ GUERRERO LUNA!

INTRO: La he puesto en acordes,punteo y notas


 Sol           Fam  Sol7    Dom                Sol7
e---------------4-3--|----3---3---------------------
B---------4-3--------|---4-----6---6-4---3--6-------
G------------4-5-----|--5---------------------------
D--4-5---------------|-5----------------------------
A--------------------|------------------------------
E--------------------|------------------------------

F#-G   D#-D-B-C-Ab-G   G-C-D#-G  G-F F-D# D F

  Sol7               Dom      Dom              Fam
e----4---4-6--4-3-----3--|-----8---8-7---7-6---4----
B---3------------6-4-----|----8---8-----8-----------
G--4---------------------|-5-8----------------------
D-5----------------------|--------------------------
A------------------------|--------------------------
E------------------------|--------------------------

G-B-D-Ab Ab-Bb Ab-G-F-D# G|C-D#-G-C G-C-B  G-B-Bb  Ab

  Fam    Sol7          Dom
e-4-3-1-3---1---------------------------------------
B---------------4-3---1-----------------------------
G---------------------------(0)---------------------
D---------------------------(0)---------------------
A---------------------------------------------------
E---------------------------------------------------

Ab-G-F-G F D#-D C  G

       Dom                  Sol7
No imaginé encontrarme contigo,

Sol             Sol7            Dom
pero en mis sueños yo te persigo.

Dom                          Fam
estoy sintiendo un cortocircuito

         Sol7         Sol    Dom
QUISIERA VERTE UNA NOCHE MÁS

=============================

        Dom                 Sol7
Te buscare a la luz de la luna,

Sol        Sol7                 Dom
sin ocultar que tengo mis dudas.

Dom                            Fam
Me siento triste bajo esta lluvia

         Sol7        Sol   Dom
QUE HACE BROTAR MI SOLEDAD

=============================

   Fam                    Dom
La luz de la luna nos unirá en la oscuridad

   Fam                   Sol   Fam   Sol7
para sentir amor de verdad.(primer trozo de la intro)


=============================


            Dom               Sol7
si miro el brillo de las estrellas

Sol          Sol7               Dom
es porque busco nuestro destino

Dom                        Fam
una pasion nacida en la tierra

         Sol7       Sol    Dom
COMO UN ROMANCE SIN FINAL

         Sol7      Sol      Dom
TAN MILAGROSO Y TAN GENIAL

          Sol7          Dom
COMO UN ROMANCE SIN FINAL.

NOTA:PARA NO COMFUNDIR ACORDES Y NOTAS
OS RECUERDO QUE LOS ACORDES SON:
G,Fm,G7 y Cm. Ninguno más.