ahi esta para todos los fans de
sakura Card captor mildisculpas si salio mal 
pero solo llevo 8 meses con la guitarra


E -------------------- --0------------------- ---0---
B --------------1--3-- ---------1------1--3-- -------
G -------------------- ---------------------- -------

 -------------------- ---0------------------ --------
 ---1------1--3------ ----------1------1--3- ---4---4
 -------------------- ---------------------- --------

 ------------------- --0---------------- --0---------
 -------------3----- ------1------1--3-- ---------1--
 --5------5--------- ------------------- ------------
 
 --------- --0-------------------- ----------0-----8-
 ----1---- ---------1----1--1--1-- --3----1----------
 --------- ----------------------- ------------------

 --5----8----5----8---- --5----8----5----8----- -----
 ---------------------------------------------- --8--
 ---------------------------------------------- -----

 ------------------ ----------------------- ---------
 ----8------------- -9--------------------- ---------
 ---------9--7--9-- -------9-----7----9---- --7--5--5

 ----------------- --------------5--5--- --3---------
 -----3----------- --3------------5--5-- ------------
 --------5--5----- -----5--5------------ ------------

 --------------3--5-- --7--7--7--7--7--7--7--7--
 -------------------- --------------------------
 -------------------- --------------------------

 --8--10--8---------- --7-----6----6--5--5--4----- 
 -------------------- ----------------------------
 -------------------- ---------------------------- 
 
 --3-3-3-3-1--1---3--5- --7--7--7--7--7--7--7--7--
 ----------------3----- --------------------------
 ---------------------- --------------------------

 --8--10--8------------ --7--7--7--7--5--5--4--4--
 ---------------------- --------------------------
 ---------------------- --------------------------

 4--4--0--0-0- --------------------5--8--
 ------------- --3--3--1--1--3--3--------
 ------------- --------------------------

 ----------8-- ----8----8----8----8--
 ------------- ----------------------
 ------------- ----------------------