Hola amigos me llamo celestino y soy de Arequipa aquí les envió este
tema es muy bonito se los recomiendo, la transcripción esta súper;
para primera y segunda guitarra claro.

(¡): este signo lo puse para indicar que debes deslizar  la yema del
dedo al siguiente traste indicado el la tablatura el cual no se golpea
por ejm: ------¡-----------
         --2-2-2-5-5-5-5---el 5 q continua del 2 que tiene signo no
se golpea pero los demás si. El (*) indica que debes rasgar las
cuerdas de arriba hacia abajo muy rápido.

**********************************************************************

INTRO:

          Rem                 Fa              Do            Rem
E|----------------------|-----------|-----------------|-------||
A|----------------------|-----¡-----|---------¡-------|-------||
D|-¡--------------------|-2-2-2-5-5-|-------2-2-3-3-2-|---0---||
G|-0-2-2-------2-0-2-2-0|-----------|-5-5-5-----------|-------||
B|-------3-3-3----------|-----------|-----------------|-------||
E|----------------------|-----------|-----------------|-------||BIS

        Do             Fa             Do           Rem       Fa
E|---------------|----------|----------------|-------|-------|
A|---------------|----------|----------------|-------|-------|
D|--¡------------|----------|--¡-------------|-------|-------|
G|-10-9-9-9-9¡---|----------|-10-9-9-9¡---10-|-7-7-7-|-9-10--|
B|-10--8-8-8-8-10|-10-13-13-|-10--8-8-8-10---|-------|-------|
E|---------------|----------|----------------|-------|-------|

        Do             Fa               Do             Rem
E|---------------|----------|--------------------|-------|
A|---------------|----------|--------------------|-------|
D|--¡------------|----------|--¡-----------------|-------|
G|-10-9-9-9-9¡---|----------|-10-9-9-9¡---10-7-7-|--7--7-|
B|-10--8-8-8-8-10|-10-13-13-|-10--8-8-8-10-------|-------|
E|---------------|----------|--------------------|-------|

     Dm-C-Dm              F                   C           F
D|--------------|-------------------|--------------*---|-----
G|---¡-------6--|-------------------|------------5-5---|-----
B|-3-5-6-3-3---3|-¡---¡-------------|-------6-3-3--5---|-¡---
E|--------------|-3-5-5-8-8-5-5-3-5-|-3-3-5--------3-3-|-3-5-

     Do       Rem
D---------|-------||
G-----¡---|-------||
B-6-3-5-6-|---3---||
E---------|-------||BIS


    Dm-C-Dm                 F
Cuando volverás / mi vida cuando vendrás
          Do
Buscando siempre estoy
    Fa        Do      Rem
Tu cariño / y tu /  amor.

      Dm-C-Dm                 F
Te extraño corazón / no puedo vivir sin ti
         Do
Pero cuando volverás
    Fa       Do     Rem
A curar / este / dolor.


INTERMEDIO:

     Dm-C-Dm              F                   C           F
D|--------------|-------------------|--------------*---|-----
G|---¡-------6--|-------------------|------------5-5---|-----
B|-3-5-6-3-3---3|-¡---¡-------------|-------6-3-3--5---|-¡---
E|--------------|-3-5-5-8-8-5-5-3-5-|-3-3-5--------3-3-|-3-5-

     Do         Rem
D|---------|-------|
G|-----¡---|-------|
B|-6-3-5-6-|---3---|
E|---------|-------|

     Dm-C-Dm              F                   C           F
D|--------------|-------------------|--------------*---|-----
G|---¡-------6--|-0-2-----2-2-0-2---|------------5-5---|-----
B|-3-5-6-3-3---3|-----1-1-----------|-------6-3-3--5---|-¡---
E|--------------|-------------------|-3-3-5--------3-3-|-3-5-

     Do         Rem
D---------|-------|
G-----¡---|-------|
B-6-3-5-6-|---3---|
E---------|-------|


       Dm-C-Dm              F
Te extraño Corazón / no puedo vivir sin ti
          Do
Esperando siempre estoy
      Fa          Do      Rem
Que regreses / junto / a mi.

       Dm-C-Dm              F
Pronto volverás / se que pronto regresaras
            Do
Que las horas sin tu amor
       Fa           Do       Rem
Es mas fuerte / que el / dolor.


     Dm-C-Dm              F                   C           F
D|--------------|-------------------|--------------*---|-----
G|---¡-------6--|-0-2-----2-2-0-2---|------------5-5---|-----
B|-3-5-6-3-3---3|-----1-1-----------|-------6-3-3--5---|-¡---
E|--------------|-------------------|-3-3-5--------3-3-|-3-5-

     Do         Rem
D|---------|-------|
G|-----¡---|-------|
B|-6-3-5-6-|---3---|
E|---------|-------|


     Dm-C-Dm              F                   C           F
D|--------------|-------------------|--------------*---|-----
G|---¡-------6--|-------------------|------------5-5---|-----
B|-3-5-6-3-3---3|-¡---¡-------------|-------6-3-3--5---|-¡---
E|--------------|-3-5-5-8-8-5-5-3-5-|-3-3-5--------3-3-|-3-5-

     Do         Rem
D|---------|-------|
G|-----¡---|-------|
B|-6-3-5-6-|---3---|
E|---------|-------|

       Dm-C-Dm              F
Te extraño Corazon / no puedo vivir sin ti
          Do
Esperando siempre estoy
      Fa          Do      Rem
Que regreses / junto / a mi.

       Dm-C-Dm              F
Pronto volveras / se que pronto regresaras
            Do
Que las horas sin tu amor
       Fa           Do       Rem
Es mas fuerte / que el / dolor.


        Do             Fa             Do           Rem       Fa
E|---------------|----------|----------------|-------|-------|
A|---------------|----------|----------------|-------|-------|
D|--¡------------|----------|--¡-------------|-------|-------|
G|-10-9-9-9-9¡---|----------|-10-9-9-9¡---10-|-7-7-7-|-9-10--|
B|-10--8-8-8-8-10|-10-13-13-|-10--8-8-8-10---|-------|-------|
E|---------------|----------|----------------|-------|-------|


        Do             Fa               Do             Rem
E|---------------|----------|--------------------|-------|
A|---------------|----------|--------------------|-------|
D|--¡------------|----------|--¡-----------------|-------|
G|-10-9-9-9-9¡---|----------|-10-9-9-9¡---10-7-7-|--7--7-|
B|-10--8-8-8-8-10|-10-13-13-|-10--8-8-8-10-------|-------|
E|---------------|----------|--------------------|-------|

 FUGA:

       Do               Fa
Si tu no vuelves / no llorare
     Do           Fa
Encontrare / otro amor
       Do                Fa
Por donde vayas / no encontraras
      Do          Fa       Rem
Otro querer /  mejor / que yo.-----------(BIS)



       La#           Fa           Do          Rem       Fa
E|------------|----------|-------------|--------|-------
A|------------|----------|-------------|--------|-------
D|------------|----------|-------------|--------|-¡-----
G|------------|----------|--9-------10-|-7-7-7--|-9-10--
B|----11-11---|--10-10---|-8—8-8-10----|--------|-------
E|-10------10-|-8------8-|-------------|--------|-------

       La#           Fa           Do           Rem
E------------|----------|-------------|---------||
A------------|----------|-------------|---------||
D------------|----------|-------------|---------||
G------------|----------|--9-------10-|-7-7-7-7-||
B----11-11---|--10-10---|-8—8-8-10----|---------||
E-10------10-|-8------8-|-------------|---------||BIS


        Do             Fa             Do           Rem       Fa
E|---------------|----------|----------------|-------|-------|
A|---------------|----------|----------------|-------|-------|
D|--¡------------|----------|--¡-------------|-------|-------|
G|-10-9-9-9-9¡---|----------|-10-9-9-9¡---10-|-7-7-7-|-9-10--|
B|-10--8-8-8-8-10|-10-13-13-|-10--8-8-8-10---|-------|-------|
E|---------------|----------|----------------|-------|-------|

        Do             Fa               Do             Rem
E|---------------|----------|--------------------|-------|
A|---------------|----------|--------------------|-------|
D|--¡------------|----------|--¡-----------------|-------|
G|-10-9-9-9-9¡---|----------|-10-9-9-9¡---10-7-7-|--7--7-|
B|-10--8-8-8-8-10|-10-13-13-|-10--8-8-8-10-------|-------|
E|---------------|----------|--------------------|-------|



          Rem                 Fa              Do            Rem
E|----------------------|-----------|-----------------|-------||
A|----------------------|-----¡-----|---------¡-------|-------||
D|-¡--------------------|-2-2-2-5-5-|-------2-2-3-3-2-|---0---||
G|-0-2-2-------2-0-2-2-0|-----------|-5-5-5-----------|-------||
B|-------3-3-3----------|-----------|-----------------|-------||
E|----------------------|-----------|-----------------|-------||BIS

                             FIN
                        Suerte amigos

********************************************************************
Un saludo para todos mis patas  de la facultad de Derecho de la UNSA
y en especial para “chavo”. por cierto toy buscando patas que quieran
formar un grupo de música; de preferencia que radiquen en
AREQUIPAMANTA jeje. cualquier cosa comunicarse con
CELESTE (diltopagal_hai@hotmail.com) Arequipa 23/nov/2009