ola espero que les guste:
areglo del bajo
1|--------------------------------------|
2|--------------------------------------|
3|--------------------------------------|
4|--------------------------------------|
5|--2-2-0-2-----2-2-0-2-----2-2-0-2-----|
6|----------2-2---------2-2-------------|
Mi               Sol
miembros todos de pie
Mi               Sol
miembros todos de pie
Mi                     La7
esto es un grito de cerveza y cafe

aqui es es silvido:
Mi             Sol
1|-10-7----7----10/12-10/12-10-----|
2|------10---10--------------------|
3|---------------------------------|
4|---------------------------------|
5|---------------------------------|
6|---------------------------------|
el silvido es 3 veces

Mi               Sol
miembros todos de pie
Mi               Sol
miembros todos de pie
Mi               Sol
miembros todos de pie
Mi                 La7
esto es un grito de poder

La7              Mi
escosa de hombre-es
     Re         Mi
lo debes entender
La7             Mi
no eres tu soy yooo


Mi             Sol
1|-10-7----7----10/12-10/12-10-----|
2|------10---10--------------------|
3|---------------------------------|
4|---------------------------------|
5|---------------------------------|
6|---------------------------------|

Mi             Sol              Mi
1|-10-7----7----10/12-10/12-10---10-7---|
2|------10---10-------------------------|
3|--------------------------------------|
4|--------------------------------------|
5|--------------------------------------|
6|--------------------------------------|

hector bor jaja