Este tema es de el Cordobes Martin Bustos, Ganador de talento argentino 1
saludos desde cordoba

Intro:
E-----------13-11----------------------------------
B---9/13-11-------13-11-13-11-13-------------------
G--------------------------------------------------
D--------------------------------------------------
A--------------------------------------------------
E--------------------------------------------------



                         Solm                       Dom
Yo siempre fui un camionero, Que a las mujeres amaba
                     Fa                        Rem
Tomaba whisky sin hielo, De vez en cuando peleaba
                      Solm                      Dom
Iba al bar con los amigos, Llevaba una vida dura
                     Fa                        Re
Pero ya no soy el mismo, Desde aquella quebradura.
                     Solm                       Dom
Caí con las manos llenas, Se me quebró la muñeca
                        Fa                          Rem
Empeze a hablar mas finito, Frunciendo un poco la jeta
                  Solm                       Dom
Por esta puta muñeca, Que me causo tanto daño
                    Fa                        Re
Desde que me la quebré, Ando sintiéndome extraño

E----7-10-9-7-9------------------------------------
B--7-----------------------------------------------
G--------------------------------------------------
D--------------------------------------------------
A--------------------------------------------------
E--------------------------------------------------


                    Lam                              Rem
Soy el camionero cacho, Ya no hay mujer que me asombre
                    Sol                           Do
Desde que yo me quebré, Ahora me gustan los hombres
                    Lam                          Rem
El camión he estacionado, Ahora prefiero otra cosa
                   Do            Sol
Algo tejido al crochet……

E----5-8-7-5---5-8-7-5-7---------------------------
B--5---------5-------------------------------------
G--------------------------------------------------
D--------------------------------------------------
A--------------------------------------------------
E--------------------------------------------------

                Solm                            Dom
Por esa puta muñeca, Que tanto me ha traicionado
                      Fa                          Rem
Si veo a alguien que pelea, Salgo corriendo espantado
                     Solm                    Dom
Me emocionan las novelas, Tengo menos apetito
                     Fa                        Re
Y mejor que ni les cuente, De mi afinidad al Piip

E----7-10-9-7-9------------------------------------
B--7-----------------------------------------------
G--------------------------------------------------
D--------------------------------------------------
A--------------------------------------------------
E--------------------------------------------------

                   Lam                        Rem
Soy el camionero cacho, Y no pienso en otra cosa
                      Sol                       Do
Si veo un tipo le digo veni, Quiero ser tu esposa
                     Lam                           Rem
Si la muñeca esta quieta, Puedo seguir siendo el mismo
              Do          Sol
Pero ya lo decidi……

(Sin acordes)              Dm Am G
Vendi camión y acoplado
                           Re  Lam Sol Lam
Con la plata que junte

Voy a ponerme las lolas
                           Re Rem Re Rem Re Rem
Y ser una gran veddette