Intro
e|---9------7------5--------|
B|----------------------2---|
G|-9---9-7---7-6----6---2---|
D|----------------------2---|
A|----------------------- --|
E|--------------------------|

Mi

  La                          fam#
Estoy muy cansada, hoy no he parado 
    Re                  Mi
de tanto jugar estoy agotada.

  La                        fam#
Mañana estaremos llenos de energia
Re                                 Mi
porque por la noche cargamos nuestras pilas.

La                     fam# 
Buenas noches hasta mañana
    Re                              Mi
los lunis y los niños nos vamos ala cama
    La                                fam#
nos vamos ala cama, nos vamos ala cama
      Re                       Mi
nos vamos ala cama, hasta mañana.

La                      fam# 
Buenas noches, hasta mañana
      Re                       Mi
Los lunis y los niños nos vamos ala cama.

e|-9--8---7-----1---|
B|--------------2---|
G|-9--8---7-----2---|
D|--------------2---|
A|------------------|
E|------------------|

 Hasta mañana