ACORDES:> Dm C Bb F

KAMELO PUNTO SEMOS – GUAPERAS TOTAL
----------------------------------------------------------------
Acordes:
    Rem       Do       La#      Fa
||---1---|---0---|---1---|---1---|------------------------------
||---3---|---1---|---3---|---1---|------------------------------
||---2---|---0---|---3---|---2---|------------------------------
||---0---|---2---|---3---|---3---|------------------------------
||-------|---3---|---1---|---3---|------------------------------
||-------|-------|-------|---1---|------------------------------

----------------------------------------------------------------
INTRO: Dm C Bb F x2

Rem Do La#           Fa
       Guaperas total.
Rem Do La#           Fa
       Guaperas total.


Rem                     Do
Cuando a la disco a mi me ven llegar,
La#               Fa
todo el mundo alucina.
Rem                       Do
Soy el que rompe, el guaperas total,
La#                Fa
sueño de toda mujer.


Rem                 Do
Entro pisando fuerte en mis talones,
La#             Fa
molan mis pantalones,
Rem                       Do
que me pillé en un show-room de París,
La#                Fa
allí probé el katxis.


Rem      Do
Ahhhhhhhhh...
     La#             Fa
a mi me llaman Francisco,
Rem      Do
Ahhhhhhhhh...
       La#             Fa
porque yo molo en la disco,
Rem      Do
Ahhhhhhhhh...
          La#         Fa
yo ya estoy acostumbrado,
Rem      Do
Ahhhhhhhhh...
    La#            Fa
lo tengo muy superado.


Rem Do            La#                    Fa
     Soy el que rompe, el guaperas total,
Rem Do            La#                    Fa
     soy el que rompe, el guaperas total,


  Rem       Do
Totaaaaaaaaal
  La#             Fa
total, total, total...
  Rem       Do
Totaaaaaaaaal
  La#             Fa
total, total, total...


Rem Do La#           Fa
       Guaperas total.
Rem Do La#           Fa
       Guaperas total.


Rem                     Do
Cuando a la disco a mi me ven llegar,
La#               Fa
todo el mundo alucina.
Rem                       Do
Soy el que rompe, el guaperas total,
La#                Fa
sueño de toda mujer.
Rem
Aaaaaaeeee.