Hola amigos!

Les envío esta transcripción, a petición de Iris Muñoz.

Saludos!

Intro

Piano

e----------------------------------
B-----5------------5------5--8-----
G---7---------5--7------7----------
D--------5-7-----------------------
A----------------------------------
E----------------------------------

e----------------------------------
B-----5------------5------5--8-----
G---7---------5--7------7----7-----
D--------5-7-----------------------
A----------------------------------
E----------------------------------

e-----------------------------------------------
B-----5------------5----------5-----------5-----
G---7---------5--7--------5-7--------5-7--------
D--------5-7----------5-7--------5-7------------
A-----------------------------------------------
E-----------------------------------------------

e--------------------------------------------------------------
B-------------5----------5----------5-------5----------5-------
G--------5--7--------5-7-------5-7------5-7--------5-7---------
D---5-7----------5-7-------5-7------5-7--------5-7--------5-7--
A--------------------------------------------------------------
E--------------------------------------------------------------


Guitarra eléctrica

e--------------------------------------------------------
B-------------5------------5-----------5-------------5---
G---5-7-4-5------5-7-4-5-----5-7-4-5-------5-7-4-5-------
D-----------7------------7-----------7-------------7-----
A--------------------------------------------------------
E--------------------------------------------------------

e--------------------------------------------------------
B-------------5------------5-----------5-------------5---
G---5-7-4-5------5-7-4-5-----5-7-4-5-------5-7-4-5-------
D-----------7------------7-----------7-------------7-----
A--------------------------------------------------------
E--------------------------------------------------------

e------------------17-17-17-17--17--17--17---
B---6/8—--8/10-------------------------------
G--------------------------------------------
D--------------------------------------------
A--------------------------------------------
E--------------------------------------------