ACORDES:> G D A E

esta va para todos los que la hemos escuchado por lo menos una
vez en la tele

G)------------------------------------------------------------
D)------------------------------------------------4-2-2-2----2
A)----0-0-0-2-3-3-3-0--------------0-0-0-2-3-3-3-----------3--
E)--0------------------3-3-3-0-3-0----------------------------

G)-------2-2-2-2----------------------------------------------
D)--2-2-----------2-2-2-2----0--------------------------------
A)-------------------------3---------------3-3-3-0-------0----
E)------------------------------1-1-1-1-1-----------4-0-------

listo eso es todo

solo es cuestion de repetir y agarrarle el ritmo

LUGOBASSBOY