Si alguien tiene los acordes o tablaturas de full metal alchemist,
escribanme (joels1231@hotmail.com).Cualquier sugerencia y/o comentario.

1|------------------------------------------------
2|------------------------------------------------
3|------------------------------------------------
4|-5-5-7-8-7-10-8-7-8-5--5-7-8-8-7-7--7-7-5-3-5-7 (x2)
5|------------------------------------------------
6|------------------------------------------------

1|--------------------------------------------------------
2|--------------------------------------------------------
3|-7-5-3-5-3-2-0--0-2-3-3-2-5-3-2-3-0--0-2-3-5-3-5-3-2-2-7
4|--------------------------------------------------------
5|--------------------------------------------------------
6|--------------------------------------------------------

1|-----------------------------------------------------------------------
2|7-7-7-7-6-4-2-7-7-7-7-6-4-2-2-4-6-7-7-4-6-7-7-6-7-6--7-7-7-7-6-4-2-7-7-
  7-7-6-7-9-6-7-4-6-7-7-7-7-6-4-6-7
3|-----------------------------------------------------------------------
4|-----------------------------------------------------------------------
5|-----------------------------------------------------------------------
6|-----------------------------------------------------------------------

3|-7-5-7-10-7-10-12-|


(Fate) Dareshimo ga otosureru, yobisobieru, sadame no bon
(Way) kurai kiri no tadanaka, motome sagase, makoto no michi

Shin wa no naka de, kurikaesareru batoru
Seinaru kurosu matoi

Yami wo uchinuke, hikari kakagete
Tokikoe, habatake pegasasu

Moetatsu kosumo, megami no senshi
Tobe, Forever Seinto Seiya!

Kami no ikari ni fureta, hito wa daremo, tsumi ninto nano ka
Omoi kusarini tsunagare, samayoi yuku, da tenshi no mure

Sabaki no himatsu, nageki no kabe no maede
Inori no koemuna shiku

Nagareru hoshiyo, seizawo kakero
Ginga no, hatemade pegasasu

Yami no sekai ni, kibou no kane wo
Narase, Forever Seinto Seiya!

Shin wa no naka de, kurikaesareru batoru
Seinaru kurosu matoi

Yami wo uchinuke, hikari kakagete
Tokikoe, habatake pegasasu

Moetatsu kosumo, megami no senshi
Tobe, Forever Seinto Seiya!

Nagareru hoshiyo, seizawo kakero
Ginga no, hatemade pegasasu

Yami no sekai ni, kibou no kane wo
Narase, Forever Seinto Seiya!