esta es una rola excelente y es por eso se la dedico
a una amiga que me inspiro en transcribirla ella se
llama Jacqueline de Leon y por supuesto es bien linda
la cancion como mi amiga.

intro

e|------------0-4-5-7-9--7-|---------------------------||
B|----------0--------------|----------------------2----||
G|--------2----------------|-----------2h4-4h6-4-2-4-2-||
D|------6------------------|--------4------------------||
A|----7--------------------|-----6---------------------||
E|--0----------------------|---7-----------------------||

e|-------------------------|------------------------||
B|-----------5-------------|----------4-------------||
G|--------4----------------|------2-----------------||
D|-------------------------|------------------------||
A|--2----------------------|---2--------------------||
E|-------------------------|------------------------||

En la cancion se va con arpejio de abajo para arriba,dandole
siempre los bajos en la guitarra para que se escuche excelente
aqui empieza la letra.

Do#m			   Fa#m
    Mírame yo soy la otra
Sol#m         La
    la que tiene el fuego
Sol#m		  Fa#m
la que sabe bien qué hacer
Do#m				Fa#m
    tu sonrisa es la caricia
Sol#m		 La
    que me mueve
	 G#m  	  F#m	   F#m-G#m-F#m
que me hace enloquecer.
Do#m				   Fa#m
    Y en la penumbra misterioso uuuuuuuhhh
    La    		Sol#m
cada noche me deslumbras
      Fa#m         Si		    La
y te pierdes al amanecer  uuuuuaaaaahh
		     B	* C *
y por eso yo pregunto.

		  Mi
Quién es ese hombre
	 Do#m
que me mira y me desnuda
     La
una fiera inquieta
	 Sol#m
que me da mil vueltas
	 Fa#m
y me hace temblar
	     La	     Si
pero me hace sentir mujer
		  Mi
Nadie me lo quita
	   Do#m
siempre seré yo su dueña
         La
por la que no duerme
	   Sol#m
por la que se muere
	  Fa#m	     Sol#m    La	   Si
por la que respira     aaaahhh aaaahhhh


		  Mi
Quién es ese hombre (ese hombre)
	 Do#m
que me mira y me desnuda
     La
una fiera inquieta
	 Sol#m
que me da mil vueltas
	 Fa#m
y me hace temblar
	     La	     Si
pero me hace sentir mujer
		  Mi
Nadie me lo quita (uuuhhh nadie)
	   Do#m
siempre seré yo su dueña
         La
por la que no duerme
	   Sol#m
por la que se muere
	  Fa#m	     Sol#m    La	   Si
por la que respira     aaaahhh aaaahhhh
		Do#m
yo soy su mujer (uuuuhhhhh)
Fa#m
 eeehehhee

Nota.aqui esta este acorde

*C/B*

e|-3-|
B|-4-|
G|-4-|
D|-4-|
A|-3-|
E|-3-|