ACORDES:> no hay

1e-3-0-0-0--3-0-0----12-10-8-7-5-3-1-0-1-3-(3)-------------------------
2b---------------------------------------------------------------------
3g---------------------------------------------------------------------
4D---------------------------------------------------------------------
5A---------------------------------------------------------------------
6E---------------------------------------------------------------------

1e-3-0-0-0--3-0-0----12-10-8-7-5-3--4-5-(5)-----------------------------
2b----------------------------------------------------------------------
3g----------------------------------------------------------------------
4D----------------------------------------------------------------------
5A----------------------------------------------------------------------
6E----------------------------------------------------------------------

1e-7-5-5-5--10-7-7-7--10-7-10-7--12-8-8-8-------------------------------
2b----------------------------------------------------------------------
3g----------------------------------------------------------------------
4D----------------------------------------------------------------------
5A----------------------------------------------------------------------
6E----------------------------------------------------------------------

1e-3-0-0-0--3-0-0--12-10-8-7-5-3----------------------------------------
2b----------------------------------------------------------------------
3g----------------------------------------------------------------------
4D----------------------------------------------------------------------
5A----------------------------------------------------------------------
6E----------------------------------------------------------------------

HAY DOS FINALES ESTE:

1e-10-8--(8)--- ó este: 1e-7-8--(8)-------------------------------------
2b----------------------------------------------------------------------
3g----------------------------------------------------------------------
4D----------------------------------------------------------------------
5A----------------------------------------------------------------------
6E----------------------------------------------------------------------


HOLA SOY RUBEN MI MSN ES "RUBEN_LIRA_ 2007@HOTMAIL.COM"
ESPERO QUE LES GUSTE
SE LAS PUSE FACILITA ESTE ES OTRO MSN
"LIRA211205@(YAHOO.ES)O YAHOO.MUSICA.MX"
CONSEJO SI USAN BENDING EN TODAS (OS) LOS TONOS(NOTAS, TRASTES)
SEOIRA MAS REBA; COMO QUE SILBA LA GUITARRA ES ELECTRICA,
CREO QUE EN ACUSTICA TAMBIEN
CALIFIQUEN SI QUIEREN QUE PONGA MAS CANCIONES;
MI ESPECIALIZACION SON LOS
SOLOS(REQUINTOS)
ASI QUE DIGANME QUE CANCION DE SOLOS LES GUSTA Y SE LAS
SACARE "LA CANCION"