Este el segundo openin' de Dragon Ball Z

INTRO

G|---------------------------------|---------------------------------|
D|-5-------------------------------|---------------------------------|
A|---------------------------------|---------------------------------|
E|---------------------------------|---------------------------------|

G|---------------------------------|---------------------------------|
D|---------------------------------|---------------------------------|
A|---------------------------------|---------------------------------|
E|---------------------------------|---------------------------------|

G|-7-------5-------4-------2-------|---------------------------------|
D|---------------------------------|-5-------4-------2---------------|
A|---------------------------------|-------------------------5-------|
E|---------------------------------|---------------------------------|

G|---------------------------------|---------------------------------|
D|-5--5--5-5-----------5-------5---|-5--5--5-5---------------5--5--5-|
A|---------------------------------|---------------------------------|
E|---------------------------------|---------------------------------|

G|---------------------------------|---------------------------------|
D|-5--5--5-5-----------5-------5---|-5--5--5-5---------------5--5--5-|
A|---------------------------------|---------------------------------|
E|---------------------------------|---------------------------------|

G|-5--5--5-5-----------5-------5---|-5--5--5-5--5--5-5---------------|
D|---------------------------------|---------------------------------|
A|---------------------------------|---------------------------------|
E|---------------------------------|---------------------------------|

G|-5-------4-------2---------------|-7---------------7---------------|
D|-------------------------5-------|---------------------------------|
A|---------------------------------|---------------------------------|
E|---------------------------------|---------------------------------|

VERSE

G|---------------------------------|---------------------------------|
D|---------------------------------|---------------------------------|
A|---------------------------------|-5---5---5---5---5---5---5---5---|
E|-0---0---0---0---0---0---0---0---|---------------------------------|

G|---------------------------------|---------------------------------|
D|---------------------------------|---------------------------------|
A|-3---3---3---3---3---3---3---3---|-3---3---3---3---3---3---3---3---|
E|---------------------------------|---------------------------------|

G|---------------------------------|---------------------------------|
D|---------------------------------|-------------5-------5---5---5---|
A|-------------5-------5---5---5---|-3---3---3-----------------------|
E|-3---3---3-----------------------|---------------------------------|

G|---------------------------------|---------------------------------|
D|---------------------------------|---------------------------------|
A|---------------------------------|-2---5---2---1-------------------|
E|-0---0---3---0-------3---0-------|---------------------5---3-------|

G|---------------------------------|---------------------------------|
D|---------------------------------|---------------------------------|
A|---------------------------------|-5---5---5---5---5---5---5---5---|
E|-0---0---0---0---0---0---0---0---|---------------------------------|

G|---------------------------------|---------------------------------|
D|---------------------------------|---------------------------------|
A|-3---3---3---3---3---3---3---3---|-3---3---3---3---3---3---3---3---|
E|---------------------------------|---------------------------------|

G|---------------------------------|---------------------------------|
D|---------------------------------|-------------5-------5---5---5---|
A|-------------5-------5---5---5---|-3---3---3-----------------------|
E|-3---3---3-----------------------|---------------------------------|

G|---------------------------------|---------------------------------|
D|---------------------------------|---------------------------------|
A|-------------------------2---5---|-----2-------2-------------------|
E|-0---0---3---0---5---3-----------|---------------------------------|

PRE-CHORUS

G|---------------------------------|---------------------------------|
D|---------------------------------|---------------------------------|
A|-3---3---3---3---3---3---3---5---|-----5---5---5---5---5---5---5---|
E|---------------------------------|---------------------------------|

G|---------------------------------|---------------------------------|
D|---------------------------------|---------------------------------|
A|---------------------------------|-2---2---2---2---2---2---2---2---|
E|-3---3---3---3---3---3---3---3---|---------------------------------|

G|---------------------------------|---------------------------------|
D|---------------------------------|---------------------------------|
A|-3---3---3---3---3---3---3---5---|-----5---5---5---5---5---5---5---|
E|---------------------------------|---------------------------------|

G|---------------------------------|---------------------------------|
D|---------------------------------|---------------------------------|
A|---------------------------------|-3---2---2---2-------------------|
E|-3---3---3---3---3---3---3---3---|---------------------------------|

CHORUS

G|---------------------------------|---------------------------------|
D|---------------------------------|---------------------------------|
A|---------------------------------|---------------------------------|
E|-0---0---0---0---0---0---0---0---|-0---0---0---0---0---0---0---0---|

G|---------------------------------|---------------------------------|
D|---------------------------------|---------------------------------|
A|-5---7-------7-------7---7---7---|-5---2-------2-------2---2---2---|
E|---------------------------------|---------------------------------|

G|---------------------------------|---------------------------------|
D|---------------------------------|---------------------------------|
A|---------------------------------|---------------------------------|
E|-0---0---0---0---0---0---0---0---|-0---0---0---0---0---0---0---0---|

G|---------------------------------|---------------------------------|
D|---------------------------------|-----------------5---4-----------|
A|-2---2-------5-------7-----------|-2---2---5---2-----------5---2---|
E|-----------------------------0---|---------------------------------|

G|---------------------------------|---------------------------------|
D|---------------------------------|---------------------------------|
A|-3---3---3---3---3---3---3---3---|-3---3---3---3---3---3---3---3---|
E|---------------------------------|---------------------------------|

G|---------------------------------|---------------------------------|
D|---------------------------------|---------------------------------|
A|-5---5---5---5---5---5---5---5---|---------------------------------|
E|---------------------------------|-7---7---7---7---7---7---7---7---|

G|---------------------------------|---------------------------------|
D|---------------------------------|---------------------------------|
A|---------------------------------|---------------------------------|
E|-0---0---0---0---0---0---0---0---|-0---0---0---0---0---0---0---0---|

G|---------------------------------|---------------------------------|
D|---------------------------------|---------------------------------|
A|-3----3----3-----5----5----5-----|---------------------------------|
E|---------------------------------|-7---7---7---7---7---------------|

G|---------------------------------|---------------------------------|
D|---------------------------------|---------------------------------|
A|-7-----------5-------------------|----2----1-----------------------|
E|-------------------------5-------|--------------5----3-----2---0---|

G|---------------------------------|---------------------------------|
D|---------------------------------|---------------------------------|
A|---------------------------------|---------------------------------|
E|-0---0---0---0---0---0---0---0---|-0---0---0---0---0---0---0---0---|

G|---------------------------------|---------------------------------|
D|---------------------------------|---------------------------------|
A|-5---7-------7-------7---7---7---|-5---2-------2-------2---2---2---|
E|---------------------------------|---------------------------------|

G|---------------------------------|---------------------------------|
D|---------------------------------|---------------------------------|
A|---------------------------------|---------------------------------|
E|-0---0---0---0---0---0---0---0---|-0---0---0---0---0---0---0---0---|

G|---------------------------------|---------------------------------|
D|---------------------------------|-----------------5---4-----------|
A|-2---2-------5-------7-----------|-2---2---5---2-----------5---2---|
E|-----------------------------0---|---------------------------------|

G|---------------------------------|---------------------------------|
D|---------------------------------|---------------------------------|
A|-3---3---3---3---3---3---3---3---|-3---3---3---3---3---3---3---3---|
E|---------------------------------|---------------------------------|

G|---------------------------------|---------------------------------|
D|---------------------------------|---------------------------------|
A|-5---5---5---5---5---5---5---5---|---------------------------------|
E|---------------------------------|-7---7---7---7---7---7---7---7---|

G|---------------------------------|---------------------------------|
D|---------------------------------|---------------------------------|
A|---------------------------------|---------------------------------|
E|-0---0---0---0---0---0---0---0---|-0---0---0---0---0---0---0---0---|

G|---------------------------------|---------------------------------|
D|---------------------------------|---------------------------------|
A|-3----3----3-----5----5----5-----|---------------------------------|
E|---------------------------------|-7---7---7---7---7---------------|

G|---------------------------------|---------------------------------|
D|---------------------------------|---------------------------------|
A|-7-----------5-------------------|----2----1-----------------------|
E|-------------------------5-------|--------------5----3-----2---0---|