ESTA TAB ESTA MUY MUY SENCILLA
Y SUENA MUY BIEN
A MI M PONE TRISTE OIRLA
ESPERO LA DISFRUTEN
TOKEN BONITO!!!


E-------------------------------------------------------------------I
B-------------------------------------------------------------------I
G-------------------------------------------------------------------I
D---------3----10---8---6---8---3---3---5---6---6---6---8---6---5---I
A--3---3------------------------------------------------------------I
E-------------------------------------------------------------------I

E-------------------------------------------------------------------I
B-------------------------------------------------------------------I
G-------------------------------------------------------------------I
D---------3----10---8---6---8---3---3---5---6---6---5---3---1---3---I
A--3---3------------------------------------------------------------I
E-------------------------------------------------------------------I



PUES IWAL Q TODO LO Q LES MANDO KIERO DEDICARLE
ESTO A DULCE ESTE DONDE ESTE