Bueno ahora les dejo las bases de esta canción
tiene una que otra nota que no se si sea asi
que no sean exigentes si encuentra los errores x favor
corríjanlos. Ahora; los acordes que están pegados unos
a otros se tocan muy rápido, las “x”
debajo de los acordes significan palm mute
con esa figura, y para tocar la parte del
piano se necesita de otra guitarra.
Solo escuchen la canción y la tab es la primer
guitarra y los acordes la segunda guitarra
Ok? JAJAJA
Introducción:
     C5
e|---------------------
B|---------------------
G|-5555----------------
D|-5555--5-3-5-3-5-3-5-
A|-3333----------------
E|---------------------
     E5       D5
e|---------------------------------------------------
B|---------------------------------------------------
G|--99-9------77-7---------------—-------------------
D|--99-9--x8--77-7--x8---todo por 2------------------
A|--77-7------55-5-----------------------------------
E|---------------------------------------------------
    XX        XX
C5                G5            A5
Poco a poco me cautiva tu sonrisa,
           E5
toma mi mano y vamos
F5        C5         A#5      G5
a salir de la infinita oscuridad venciendo al mal
       A#5    C5
e|-------------------3---------------5-----------------
B|----------------------6-5-3----------8-7-5-----5~~~--
G|--3-3-3-3---5---------------5--------------—7--------
D|--3-3-3-3---5----------------------------------------
A|--1-1-1-1---3----------------------------------------
E|-----------------------------------------------------
venciendo al maaaaal
<<<Esto es lo que hace el piano>>>
e|--15-13-12-13-12--------------------------------
B|-----------------15-13-12-----------------------
G|-------------------------—14-12-----------------
D|--------------------------------15-14-12--------
A|-----------------------------------------15-----
E|------------------------------------------------
~~~~~~~~~~~~~~~~~~~~~~~~~~~~~~~~~~~~~~~~~~~~~~~~~~~~~~~~~~~~~~~~~~~~~~~~
Verso 1
      E5            D5            C5             A#5
e|------------------------------------------------------------
B|------------------------------------------------------------
G|--X-X-9--X-9----X-X-7--X-7----X-X-5--X-5-----X-X-3--X-3-----
D|--X-X-9--X-9-X2-X-X-7--X-7-X2-X-X-5--X-5-X2--X-X-3--X-3-X2--
A|--X-X-7--X-7----X-X-5--X-5----X-X-3--X-3-----X-X-1--X-1-----
E|------------------------------------------------------------
E5                      D5
Cuando de nuevo yo te vi
                             C5
volando como un ave en mi jardín,
                   A#5
recordé lugares hechos para soñar.
~~~~~~~~~~~~~~~~~~~~~~~~~~~~~~~~~~~~~~~~~~~~~~~~~~~~~~~~~~~~~~~~~~~~
Verso2
      E5            D5            C5             A#5
e|------------------------------------------------------------
B|------------------------------------------------------------
G|--X-X-9--X-9----X-X-7--X-7----X-X-5--X-5-----X-X-3--X-3-----
D|--X-X-9--X-9-X2-X-X-7--X-7-X2-X-X-5--X-5-X2--X-X-3--X-3-X2--
A|--X-X-7--X-7----X-X-5--X-5----X-X-3--X-3-----X-X-1--X-1-----
E|------------------------------------------------------------
E5                            D5
La niñez ha vuelto a mi mente otra vez
             C5
como un sueño echo realidad,
    A#5             C5
va elevas conmigo uuuna vez mas
~~~~~~~~~~~~~~~~~~~~~~~~~~~~~~~~~~~~~~~~~~~~~~~~~~~~~~~~~~~~~~~~~~~~~~
Precoro
      C5       D5          A#5       A#5      C5      A#5  C5
e|------------------------------------------------------------
B|------------------------------------------------------------
G|--555-5~-----777-7~-----333-3~----3-3-3-3-5-5-5-5-3-3-3-3-5-
D|--555-5~-x4--777-7~-x3--333-3~-x2-3-3-3-3-5-5-5-5-3-3-3-3-5-
A|--333-3~-----555-5~-----111-1~----1-1-1-1-3-3-3-3-1-1-1-1-3-
E|------------------------------------------------------------
C5            C5
Siempre juntos, podremos,
C5   C5   D5
soñar, luchando por lograr
D5      D5   A#5  A#5           A#5
un mundo mejor echo para los dos,
   C5          A#5         C5
lo lograre con amor, orgullo y
e|-------------
B|-------------
G|-------------
D|--5-3-5-3-5--
A|-------------
E|-------------
  Valooor
~~~~~~~~~~~~~~~~~~~~~~~~~~~~~~~~~~~~~~~~~~~~~~~~~~~~~~~~~~~~~~~~~~~~
Coro
     E5       D5
e|---------------------------------------------------
B|---------------------------------------------------
G|--99-9------77-7---------------—-------------------
D|--99-9—x8--77-7—x8---todo por 4------------------
A|--77-7------55-5-----------------------------------
E|---------------------------------------------------
    XX        XX
C5                G5            A5
Poco a poco me cautiva tu sonrisa,
           E5
toma mi mano y vamos
F5        C5         A#5      G5
a salir de la infinita oscuridad
C5                   G5
siempre finjo que no me importa
A5                 E5
que el amor impide mi derrota,
F5           G5       A#5           G5
y me ayuda a salir de la infinita oscuridad
       A#5    C5
e|-------------------3---------------5-----------------
B|----------------------6-5-3----------8-7-5-----5~~~--
G|--3-3-3-3---5---------------5--------------—7--------
D|--3-3-3-3---5----------------------------------------
A|--1-1-1-1---3----------------------------------------
E|-----------------------------------------------------
venciendo al maaaaal
<<<Esto es lo que hace el piano>>>
e|--15-13-12-13-12--------------------------------
B|-----------------15-13-12-----------------------
G|-------------------------—14-12-----------------
D|--------------------------------15-14-12--------
A|-----------------------------------------15-----
E|------------------------------------------------
~~~~~~~~~~~~~~~~~~~~~~~~~~~~~~~~~~~~~~~~~~~~~~~~~~~~~~~~~~~~~~~~~~~~
Verso 3
      E5            D5            C5             A#5
e|------------------------------------------------------------
B|------------------------------------------------------------
G|--X-X-9--X-9----X-X-7--X-7----X-X-5--X-5-----X-X-3--X-3-----
D|--X-X-9--X-9-X2-X-X-7--X-7-X2-X-X-5--X-5-X2--X-X-3--X-3-X2--
A|--X-X-7--X-7----X-X-5--X-5----X-X-3--X-3-----X-X-1--X-1-----
E|------------------------------------------------------------
E5                      D5
Cuando de nuevo yo te vi
                             C5
volando como un ave en mi jardín,
                   A#5
recordé lugares hechos para soñar.
~~~~~~~~~~~~~~~~~~~~~~~~~~~~~~~~~~~~~~~~~~~~~~~~~~~~~~~~~~~~~~~~~~~~
Verso4
      E5            D5            C5             A#5
e|------------------------------------------------------------
B|------------------------------------------------------------
G|--X-X-9--X-9----X-X-7--X-7----X-X-5--X-5-----X-X-3--X-3-----
D|--X-X-9--X-9-X2-X-X-7--X-7-X2-X-X-5--X-5-X2--X-X-3--X-3-X2--
A|--X-X-7--X-7----X-X-5--X-5----X-X-3--X-3-----X-X-1--X-1-----
E|------------------------------------------------------------
E5                            D5
La niñez ha vuelto a mi mente otra vez
             C5
como un sueño echo realidad,
    A#5             C5
va elevas conmigo uuuna vez mas
~~~~~~~~~~~~~~~~~~~~~~~~~~~~~~~~~~~~~~~~~~~~~~~~~~~~~~~~~~~~~~~~~~~~
Precoro
      C5       D5          A#5       A#5      C5      A#5  C5
e|------------------------------------------------------------
B|------------------------------------------------------------
G|--555-5~-----777-7~-----333-3~----3-3-3-3-3-5-5-5-5-3-3-3-3-5-
D|--555-5~-x4--777-7~-x3--333-3~-x2-3-3-3-3-3-5-5-5-5-3-3-3-3-5-
A|--333-3~-----555-5~-----111-1~----1-1-1-1-1-3-3-3-3-1-1-1-1-3-
E|------------------------------------------------------------
C5            C5
Siempre juntos, podremos,
C5   C5   D5
soñar, luchando por lograr
D5      D5   A#5  A#5           A#5
un mundo mejor echo para los dos,
   C5          A#5         C5
lo lograre con amor, orgullo y
e|-------------
B|-------------
G|-------------
D|--5-3-5-3-5--
A|-------------
E|-------------
  Valooor
~~~~~~~~~~~~~~~~~~~~~~~~~~~~~~~~~~~~~~~~~~~~~~~~~~~~~~~~~~~~~~~~~~~~
Coro
     E5       D5
e|---------------------------------------------------
B|---------------------------------------------------
G|--99-9------77-7---------------—-------------------
D|--99-9--x8--77-7--x8---todo por 4------------------
A|--77-7------55-5-----------------------------------
E|---------------------------------------------------
    XX        XX
C5                G5            A5
Poco a poco me cautiva tu sonrisa,
           E5
toma mi mano y vamos
F5        C5         A#5      G5
a salir de la infinita oscuridad
C5                   G5
siempre finjo que no me importa
A5                 E5
que el amor impide mi derrota,
F5           G5       A#5           G5
y me ayuda a salir de la infinita oscuridad
       A#5    C5
e|-----------------3---------------5-----------------------
B|--------------------6-5-3----------8-7-5-----5~~~--8-7-5-
G|--3-3-3-3---5-------------5--------------—7--------------
D|--3-3-3-3---5--------------------------------------------
A|--1-1-1-1---3--------------------------------------------
E|---------------------------------------------------------
venciendo al maaaaal