La saco mi profesor de guitarra y yo la saque de él,
la suya esta mejor pero como no la comparte... XD
en cualquier caso dadle las gracias a él...
y weno a mi tambien :P xD

Si quereis cualquier cosa...wildkyo@gmail.com
A disfrutarla....

'eran uno dos y tres...'

E----7-------7-------7---8--6--5-----------------
B----7-------7-------7------------8--6--5--------
G-------5-5----5-5-------------------------7--5--
D------------------------------------------------
A------------------------------------------------
E------------------------------------------------


E----7-------7-------7---10--8--6--5--5----------
B----7-------7-------7-------------------8-------
G-------5-5----5-5 ------------------------------
D------------------------------------------------
A------------------------------------------------
E------------------------------------------------

E----13--------13-------13---15--13--11--10-10---
B----13--------13-------13---------------------13
G-------10-10-----10-10--------------------------
D------------------------------------------------
A------------------------------------------------
E------------------------------------------------


E----7-------7-------7---8--6--5-----------------
B----7-------7-------7------------8--6-----------
G-------5-5----5-5-------------------------------
D------------------------------------------------
A------------------------------------------------
E------------------------------------------------

E-5x6-----8-8--6--5------------------------------
B-------6------------8---------------------------
G-----5------------------------------------------
D------------------------------------------------
A------------------------------------------------
E------------------------------------------------

E-5x6-----8-8--6--5------------------------------
B-------6------------8--6--5--3------------------
G-----5------------------------------------------
D------------------------------------------------
A------------------------------------------------
E------------------------------------------------