INTRO:
Mi - Do#m - Fa#m - Si
(Lo que hace el bajo)
e|------------------------------------------------|
B|------------------------------------------------|
G|------------------------------------------------|
D|----------4.-2------4-4----------4.-2--------2--|
A|-7.-6-4-7------4-2.-----7.-6-4-7------4-2.-2----|
E|------------------------------------------------|

(Lo que hacen las... cornetas??? :S)
e|---7------------------------|
B|-----9----------9-7--9..----|
G|----------9-6------------9--|
D|-9------9-----9-------------|
A|----------------------------|
E|----------------------------|

*CORO*
		E	(Riff 1)
Qué bonita vecindad
C#		F#m   A (Riff 2)
qué bonita vecindad,
			E  (Riff 3)	C#m
es la vecindad del Chavo, (eso, eso, eso, eso)
		   F#m	B (Riff 4)
no valdrá medio centavo,
		     E   (E-F#-G-G#...)
pero es linda de verdad.

	...G#	 C#m
Mi nombre es el Chavo,
	 Sol#			Do#m
toda mi ropa es un auténtico remiendo,
	Sol#	Do#m
a veces no me lavo,
	  F#		B		(A - A# - B)
y hago maldades pero sin querer queriendo.


*CORO*


	 Sol#	 Do#m
El ricachón es Quico,
	 Sol#	  Do#m
qué cachetón y feo es el pobre chico;
	Sol#	Do#m
pero la más ladina,
	  F#m			B	  (A - A# - B)
sin duda alguna es la tremenda Chilindrina.


*CORO*

	 Sol#	Do#m
El profesor visita
	 Sol#	  		   Do#m
la vecindad como buscando que haya boda,
	 Sol#	 Do#m
y Ron Damón no evita,
	   F#m			    B	  (A - A# - B)
los golpes que doña Florinda le acomoda.


*CORO*

	 Sol#	Do#m
La Popis es muy boba
	  Sol#	  	Do#m
la Bruja del 71 con su escoba,
	 Sol#	 Do#m
y de pilón el ñoño
	   F#m			    B	  (A - A# - B)
aquel que del Señor Barriga es el retoño.


*CORO*


Riffs
-----

Riff 1
e|---------|
B|-5-------|
G|---7-6.--|
D|---------|
A|---------|
E|---------|

Riff 2
e|----------|
B|-7-9-10.--|
G|----------|
D|----------|
A|----------|
E|----------|

Riff 3
e|---7-8-9.--|
B|-9---------|
G|-----------|
D|-----------|
A|-----------|
E|-----------|

Riff 4
e|-9---7----|
B|---9---9--|
G|----------|
D|----------|
A|----------|
E|----------|