Intro:  D - A - F# - Bm - Dm - A - A7
        Re - La - Fa# - Sim - Mi - La - Re - Mi

e|-14-14-13-14-16-16/17-17-16/17-16-14-14-12.-11-12-14-14/15-15--
B|---------------------------------------------------------------
G|---------------------------------------------------------------
D|---------------------------------------------------------------
A|---------------------------------------------------------------
E|---------------------------------------------------------------

e|-14/15-14-12-12-10-9-10-12-12/13-13-12/13-12-10-10-9-9----9--
B|-------------------------------------------------------12----
G|-------------------------------------------------------------
D|-------------------------------------------------------------
A|-------------------------------------------------------------
E|-------------------------------------------------------------

e|-9-10-12-12/13-13-12/13-12-10-10-9-9----9--
B|-------------------------------------12----
G|-------------------------------------------
D|-------------------------------------------
A|-------------------------------------------
E|-------------------------------------------

e|------------------------9-10-12-14-14-13-14-16-16/17--
B|-10-10-9----10----10-12-------------------------------
G|---------12----12-------------------------------------
D|------------------------------------------------------
A|------------------------------------------------------
E|------------------------------------------------------


e|-16-19-17-19-17-16-14-12-11-12-14-14/15-14-17-15-17-15-14-12.--
B|---------------------------------------------------------------
G|---------------------------------------------------------------
D|---------------------------------------------------------------
A|---------------------------------------------------------------
E|---------------------------------------------------------------

e|-10/12/10-9-10-14-----9-------------------12--12--12---------------|
B|--------------------9---12/10-10-9-10-----------------( NO SE   )--|
G|-----------------------------------------9---9---9-----------------|
D|-------------------------------------------------------------------|
A|-------------------------------------------------------------------|
E|-------------------------------------------------------------------|


La
Enamorándonos hasta los tuétanos
                     Fa#            Sim
fuimos queriéndonos, ay con tal pasión
que algunos pérfidos sin más escrúpulos
                      Mi           La
nos llaman cándidos, ay sin dilación.
Pero al fanático de lo romántico
               La7              Re
le importa un rábano el qué dirán.
          Rem              La
Si somos cursis es cosa nuestra
   Sim    Mi          La  La7
y nunca de nadie más.

       Re       Rem         La
Somos cursis, sí, lo aceptamos
Sim         Mi        La
y que nos dejen en paz.


Intro


La
Enamorándonos lo que es romántico
                 Fa#         Sim
es sintómatico, ay del verbo amar
que hasta las glándulas que vierten lágrimas
                      Mi          La
parecen frágiles, ay es la verdad.
Si los románticos somos ridículos
           La7                   Re
tal vez lunáticos, que más les da.
          Rem              La
Si somos cursis es cosa nuestra
   Sim    Mi          La  La7
y nunca de nadie más.

       Re       Rem         La
Somos cursis, sí, lo aceptamos
Sim         Mi        La
y que nos dejen en paz
Sim         Mi        La
y que nos dejen en paz
Sim         Mi        La
y que nos dejen en paz.




                   --------
                º-| ¤    ¤ |-º
                º-|  LuïS  |-º
                º-| ¤    ¤ |-º
                          /
                    |    |
        ·===========================·
        | luis_6cuerdas@hotmail.com |
        ·===========================·