no se como la conoce el resto del mundo, pero esta es la cancion del principio de candy... 
ahi le mando tambien la letra..(consejo si tocan la tablatura junto con la letra le agarran 
el tiempo)

|-----------------------------------------------------------------------------
|--------6-------9-8-6-----------------------8-6------------------------------
|5-6-8-8---5-8-8-------8-6-3-5-6-6-8-5-6-8-6-----8-6-5------------------------
|-----------------------------------------------------------------------------
|-----------------------------------------------------------------------------
|-----------------------------------------------------------------------------

|-----------------------------------------------------------------------------
|------------9-8-6---------------8-6-----------------6-6-6-8-9--8-8-8-9-11-8-9
|5-5-5-6-8-8-------8-3-3-3-5-6-6-----8-6p5-5-5-5-6-8--------------------------
|-----------------------------------------------------------------------------
|-----------------------------------------------------------------------------
|-----------------------------------------------------------------------------


|----------------------------------------------------------------------------
|----6-8/9/8-6-8/9/8-8-8-8-9-11-9-8-9-----6-8/9/8-6-8/9/8-8-8-8-9-11-9-8-6---
|5-5----------------------------------5-5------------------------------------
|----------------------------------------------------------------------------
|----------------------------------------------------------------------------
|----------------------------------------------------------------------------

|9-9-9-8-8-8-6-6-6-4-3/8-9-9-9-6-8-8-8-6-6-6-4-3-4---------------------------
|----------------------------------------------------------------------------
|----------------------------------------------------------------------------
|----------------------------------------------------------------------------
|----------------------------------------------------------------------------
|----------------------------------------------------------------------------


Candy

"si me buscas, tu a mi
me podras encontrar
yo te espero aqui si si
este es mi lugar

si quieres reir
descubre la alergria de soñar
un mundo de aventuras sin igual
junto a mi, a tu amiga Candy...

si te sientes solo recurrere a mi
te estare esperando aqui
cuentame tu historia y te alegraras
sabes que una amiga tendras

busacame, sigueme, llamame Candy
busca mi camino sigueme
rie como Candy"


========================= www.lacuerda.net ==========================