Intro (Suave)

e----------------
B----------------
G-----------------
D----4-5---------
A-7-------5---------
E-------------------

Esta Parte es a Full!

e----------------------------
B-------------------------
G-------------------------
D-----4-5----------4-----
A-7-------5---5---7---5
E-----------------------

e-----------------------------
B-----------------------
G-----------------------
D-----4-5----------4------
A-7-------5---5---7---5
E-----------------------

Intermedio 
e-----------------------------
B-----------------------------
G-----------------------------
D----7----7/9-7/5-----5/4
A----------------------------
E------------------------------

Rápido y Fuerte!!
e777777777777-10-12-777777777-10-12-5555555-7-10-12-555555 
B------------------------------------------------------
G-------------------------------------------------------
D-------------------------------------------------------
A------------------------------------------------------
E------------------------------------------------------


e 6666666---7---7----
B--------------------
G---------------------
D------------------2--
A------------------2--
E------------------0--

Santiago de Chile - Alex...si, ese mismo