ACORDES:> mi(E) mayor

MODIFICACION A LA TRANSCRIPCION DE:
jesus daniel (dannycrazy2442@hotmail.com)
**********************************************************************

una que otra cosilla de diferencia
soy ruben el que modificó
la transcripcion, mi msn es ruben_lira_2007@hotmail.com
lira211205@yahoo.es
lira211205@yahoo.musica.mx
 voten  para ver la diferencia esta correcta

1-------------------7-6-7-9-7------------------7-6-7-9-(7)---12-(12)--
2----9---9---9---9--------------9---9---9---9-------------------------
3----9---9---9---9--------------9---9---9---9-------------------------
4-9--------9------------------9-------9-------------------------------
5------7-------7------------------7-------7---------------------------
6---------------------------------------------------------------------
continuación de la parte de arriba

1--14-15-15-14-15-14-(12)----
2----------------------------
3----------------------------
4----------------------------
5----------------------------
6----------------------------

1-------------------7-6-7-9-(7)---11-(12)--0---------------------------
2----9---9---9---9-------------------------0---------------------------
3----9---9---9---9-------------------------1---------------------------
4--9-------9-------------------------------2---------------------------
5------7-------7---------------------------2---------------------------
6------------------------------------------0---------------------------