vive en una piña debajo del mar...bob es-pon-ja...
------------------------------------------------------
------------------------------------------------------
-7-7-9-7-------7-7-9-7--------------------------------
---------9-------------9------------------------------
-----------10-----------------------------------------
------------------------------------------------------

su cuerpo absorbe y sin estallar.......bob es-pon-ja...
------------------------------------------------------
------------------------------------------------------
--12-12-14-12------------12-12-14-12------------------
---------------14--------------------14---------------
------------------15----------------------------------
------------------------------------------------------

el mejor amigo que podrias desear...bob es-pon-ja...
------------------------------------------------------
------------------------------------------------------
--7-7-9-7-------7-7-9-7-------------------------------
----------9-------------9-----------------------------
------------10----------------------------------------
------------------------------------------------------

y como a un pez le es facil flotar....bob es-pon-ja...
------------------------------------------------------
------------------------------------------------------
-12-12-14-12--------12-12-14-12-----------------------
-------------14-----------------14--------------------
----------------15------------------------------------
------------------------------------------------------

bob es-pon-ja   bob es-pon-ja  bob es-pon-ja
------------------------------------------------------
-8--5-----------8--5----------8--5--------------------
-------7--0-----------7--0----------7--0--------------
------------------------------------------------------
------------------------------------------------------
------------------------------------------------------

el es boooob....es-ponjaaaaaa      JA JA JA
------------------------------------------------------
-3-3-5----------7--8-8--------------------------------
------------------------------------------------------
------------------------------------------------------
------------------------------------------------------
------------------------------------------------------

(silbido)
------------------------------------------------------
-8-10-12-10---12-8---8--------------------------------
-------------------7----------------------------------
------------------------------------------------------
------------------------------------------------------
------------------------------------------------------


Viva Bob Esponja!!