ACORDES:> G C D D7 Em

Intro:
                                         (cuac cuac!)
-----------------------------0-1----1-0-----3--------
-----------------1-3---3-1-3------3-----3------------
-0-0-2-4---4-2-4-----------------------------0-------
--4--------------------------------------------------
-----------------------------------------------------
-----------------------------------------------------

Estrofa:
Sol         Do      Re
Vuela, camina y nada
   Sol       Do          Re
Degrazna, sí degrazna él
            Sol        Do    Re
Grazna a quien le quiera oír
Sol        Do         Re
Y si te pones a cantar
     G         C    D        D7        G    (D)
Saltará, buceará y para todos, él nadará...


Estribillo:
   Sol          Re      Mim        Re
Salpica, chapotea, feliz en el agua
      C         D                   (G) (D)
No esperes que salga... sólo habrá gotitas
Sol            Re     Mim         Re
Salpica chapotea, feliz en el agua
      C         D                   (G) (D)
No esperes que salga... sólo habrá gotitas...


Interludio 1:
Sol      Re    Mim    Re      Do     Re      Mim   Re
----------------------------------------------------
-0--0-0---------0-----------------------------------
-------2---0-2---0---------------------0------------
---------0--------4-0---2--2-2-0---2-4---2-4--------
---------------------------------2-----------2------
----------------------------------------------------

G     D    Em      D      C      D    G (D)(G)
----------------------------------------------------
-0--0-0---------0-----------------------------------
-------2---0-2---0-------------0-2--0-----0---------
---------0--------4-0---2--2-4----4----0------------
----------------------------------------------------
----------------------------------------------------

Interludio 2:
Sol  Re         Mim Re
Lala lalala lalá
  Do    Mim   Do   Re
Lalalalalá lalala
Sol  Re         Mim Re
Lala lalala lalá
  C     D     G  (D)(G)
Lalalala lá lalá


Interludio 1 de nuevo.


Estribillo (suenan las notas del interludio 1 de fondo):
Sol            Re     Mim         Re
Salpica chapotea, feliz en el agua
      Do         Re
No esperes que salga...
Sol            Re     Mim         Re
Salpica chapotea, feliz en el agua
      C         D    G (D) (G)
No esperes que salga-a.


Está canción posiblemente contenga múltiples errores,
pero así como está puede ser tocada también.
Además sirve de base para quien quiera corregirla.
Un saludo a tod@s ;)
javi__mlg@hotmail.com  para cualquier sugerencia.