Pues este es el riff principal del tema de esta pelicula, 
no estoy seguro de quien toca, creo que es Joe Satriani o
Eddie Van Halen, pero esta facil:

e--------------------------------------------------------
B----8-8--6-5-6-5----------5---5-6--5---5-----------------
G--5--------------7-7--5-7---7--------5---7-7------------
D--------------------------------------------------------
A--------------------------------------------------------
E--------------------------------------------------------

e--------------------------------------------------------
B----8-8--6-5-6-5----------5---5-6--5---8---------------
G--5--------------7-7--5-7---7--------5------------------
D--------------------------------------------------------
A--------------------------------------------------------
E--------------------------------------------------------

e----------------------------------------------------------------
B-----13-13---11-10-11-10--------------10----10-11-10----10------
G--10---------------------12-12--10-12----12----------10---12-12-
D----------------------------------------------------------------
A----------------------------------------------------------------
E----------------------------------------------------------------

e----------------------------------------------------------------
B-----13-13---11-10-11-10--------------10----10-11-10----13------
G--10---------------------12-12--10-12----12----------10---------
D----------------------------------------------------------------
A----------------------------------------------------------------
E----------------------------------------------------------------