ACORDES:> D C G A E Dm F Am

Phil Collins – En Marcha Estoy - Acústico

Intro:
    Re                   Re
e---2----5-5-5----3-----2----x--------------------------|
B---3----3-3-3----3-----3----3--------------------------|
G---2----2-2-2----2-----2----2--------------------------|
D-------------------------------------------------------|
A-------------------------------------------------------|
E-------------------------------------------------------|x4

Re                   Do
 Que sepa el mundo que en marcha estoy
      Sol               La
con mucho que ver y vivir
      Sol             Re      La
Los cielos azules andando voy
                  Sol       Mi
A un lugar asi soñaba con ir.

Re                   Do
 Que sepa el mundo que en marcha estoy
        Sol                   La
Que me gusta cada instante aquí
        Sol         Re                La
Con el sol mas brillante mis pasos doy
                    Sol     Mi
No hacia falta la risa en mí.

              Rem           Fa
Y es lo más importante volvernos a ver

No me importa donde tenga que ir
         Rem            Fa            Rem
Mil historias hay que oír, y van a ser las
              La
Que quiero compartir.

La                Sol
 Tú diles que me siento bien
     Re                                  Mi
Con tanto que ver y vivir con la luna sobre
     Re           La    Mi
Mi duermo en un edén nada

        Re        Mi
Más se podría pedir.

       Lam                  Do
Ni la lluvia caer me va a cambiar
   Lam                     Sol
Y el sol siempre vuelve salir
            Lam                Do          Lam
Y sentir el viento sobre tu piel te va a encantar
                           La
Cuantas cosas hay por descubrir.

La          Sol
 Sigo mi camino,
La       Sol
 Mi destino,
La         Mi
 Es mi camino...

Break
    Re                   Re
e---2----5-5-5----3-----2----x--------------------------|
B---3----3-3-3----3-----3----3--------------------------|
G---2----2-2-2----2-----2----2--------------------------|
D-------------------------------------------------------|
A-------------------------------------------------------|
E-------------------------------------------------------|x4


Re                     Do
 Que sepa el mundo en marcha estoy
   Sol                La
Y voy a cumplir mi misión (voy a cumplir mi misión)
      Sol                Re
Los cielos azules por donde
     La       Do     La
Voy dan alas a mi corazón.

   Re                     Do
Y que sepan todos que en marcha estoy
     Sol              La
Que voy a volver a mojar
       Sol                 Re
Con el sol mas brillante mi pasos doy

    La          Do       La
Disfruto el camino al andar.
La
En marcha estoy...
La               Re   Re
Si en marcha estoy.