Date: Sat, 5 Aug 2000 16:55:03 -0400
From: Milos Kovacevic <egm42496@yahoo.com>
Subject: m/misc_soundtrack/bridge_over_river_kwai_whistle_march.tab

Hi

This is my first tab ever. Its the whistling march performed by British war 
cons in 'The Bridge over River Kwai' movie. I hope i got the theme correct. 
If not, all comments and corrections are welcome.

'The River Kwai March' theme:

e----------------|-12-12-8-|---------------|--------|
B--8-----------8-|---------|-8-------------|-8-8----|
G----9----9-10---|---------|---9----9-10-9-|-----10-|
D----------------|---------|---------------|--------|
A----------------|---------|---------------|--------|
E----------------|---------|---------------|--------|


e----------------|---------------|--------------------|----------------|
B----------------|-8-------------|---8------7------10-|-8------8-8-8-8-|
G-10-7----7-9-10-|---9----9-10-9-|-7------9---7-------|----------------|
D----------------|---------------|--------------------|----------------|
A----------------|---------------|--------------------|----------------|
E----------------|---------------|--------------------|----------------|

e----------------|-12-12-8-|---------------|--------|
B--8-----------8-|---------|-8-------------|-8-8----|
G----9----9-10---|---------|---9----9-10-9-|-----10-|
D----------------|---------|---------------|--------|
A----------------|---------|---------------|--------|
E----------------|---------|---------------|--------|

e------------------|-8-------------|---------------------|------|
B---------10-12-10-|---8----8------|---10---------8----8-|------|
G-10-7-------------|----------10-9-|-7-------------------|------|
D------------------|---------------|---------10-9--------|--10--|
A------------------|---------------|---------------------|------|
E------------------|---------------|---------------------|------|