Andrés Valdivia - Encontrar

Re      Lam       Mim


  *Em*
e-----------------------------
B-----------------------------
G-----------------------------
D----5/--4/--2--0-------------
A-----------------------------
E-----------------------------

Re              Lam
Hey dime donde estas
               Em     *Em*
Donde fuiste a parar
Re                Lam
Hey cuentame que pasa
                   Em     *Em*
Cuando miras hacia atras

Sim                 Mim
Te perdiste en un momento
Sim                 Mim
Te escondiste en un lugar
Bm                 C*
En donde ya no hay recuerdos

Y no te puedes encontrar

                          G...
e--7-7/-8 /-10/-12/-10--
B--8-8/-10/-12/-13/-12--
G-----------------------
D-----------------------
A-----------------------
E-----------------------

                          G...
e--7-7/-8 /-5/-7--------
B--8-8/-10/-7/-8--------
G-----------------------
D-----------------------
A-----------------------
E-----------------------


Re              Lam
A un lado del camino
               Em    *Em*
Te sientas a esperar
Re               Lam
Que un rayo te despierte
             Em         *Em*
Que te haga reaccionar

Sim                 Mim
Te perdiste en un momento
Sim                  Mim
Te escondiste en un lugar
Bm                   C*
Donde ya solo hay pretextos

Y no te puedes encontrar


                          G...
e--7-7/-8 /-10/-12/-10--
B--8-8/-10/-12/-13/-12--
G-----------------------
D-----------------------
A-----------------------
E-----------------------

                          G...
e--7-7/-8 /-5/-7--------
B--8-8/-10/-7/-8--------
G-----------------------
D-----------------------
A-----------------------
E-----------------------

                          G...
e--7-7/-8 /-10/-12/-10--
B--8-8/-10/-12/-13/-12--
G-----------------------
D-----------------------
A-----------------------
E-----------------------

                          G...
e--7-7/-8 /-5/-7--------
B--8-8/-10/-7/-8--------
G-----------------------
D-----------------------
A-----------------------
E-----------------------


Em+     D+      G
Em+     D+      G     C9     G(fin)


Acordes:

D   :xx0232
Am  :002210
Em  :022000
Bm  :224432
C*  :332010
G   :320033
Em+ :7x0087
D+  :5x0075
C9  :x32033


Esta muy buena la opera prima de Fuguet y la banda sonora también
Saludos Atte Yo