ACORDES:> SOL DO LA MIm

Intro:

MI |-------------------------------------------------|
SI |-----------------------------------------1sl5----|
SOL|-------------------------------------------------|
RE |-------------------------------------------------|
LA |-------------------------------------------------|
MI |-----0--2--3---0--2--3--0--2--3--0---------------|



|------------------------------------------0------|
|-----------------------------------------1sl5----|
|-------------------------------------------------|
|-------------------------------------------------|
|-------------------------------------------------|
|-----0--2--3---0--2--3--0--2--3--0---------------|


(MIm) (Guitarra 1)

|----------------------------------------------|
|----------------------------------------------| x 4
|----------------------------------------------|(Guitarra 2)
|----------------------------------------------|
|----5h7---5--7--------------------------------|
|--------------------7-7-5-0-------------------|



RE|-2~-5-4p2h5-|  Riff 1

|----------------|
|---3------------|
|-----2p0--------|  Riff 2
|-0-------3-0----|
|-------------3--|
|----------------|


Mim
Un puñado de hombres pasados de ponche
Mim
se festejan a la mexicana
Mim
destrozando a su paso moteles y bares
Mim
cuesta abajo no les cuesta nada.

Sol           La          Sol      Mim
Habran la frontera,la estampida va a llegar  Riff 1
Sol             La         Sol      Mim
levantando polvo vienen los desfachatados.
Sol             La         Sol         Mim
Vienen dando tumbos, viven fuera de la ley  Riff  2
Sol              La        Sol        Mim
alma de cantina traen los desfachatados.

Mim
Un enjambre de muchachas
Mim
guapas, chulas, guapas,
Mim
ponen hot un mini mercado
Mim
en la ruta hacia El Paso
Mim
van dando sablazos
Mim
en un carro tomado prestado.

Sol          La        Sol           Mim
Abran la frontera la estampida veo llegar,  Riff 1
Sol            La        Sol           Mim
vienen dando tumbos viven fuera de la ley Riff  2
Sol            La        Sol          Mim
alma de cantina traen los desfachatados.
Mim
Te robo, te mato te limpio.
Mim
Te robo, te mato, te limpio.
Mim
Te robo, te mato, te limpio, te mato,
te limpio, te mato.

Mim
Un enjambre de muchachas
Mim
guapas, chulas, guapas,
Mim
ponen hot un mini mercado
Mim
en la ruta hacia El Paso
Mim
van dando sablazos
Mim
en un carro tomado prestado


Sol          La        Sol            Mim
Abran la frontera la estampida veo llegar,
Sol           La      Sol              Mim
vienen dando tumbos viven fuera de la ley
Sol             La      Sol           Mim
alma de cantina traen los desfachatados.