Esta es mi primera aportacion espero que les guste,
es corta pero es la parte mas importante de la canción.

Nota: La equis (x) significa una espera equivalente a un golpe al suelo
con el pie (zapateo).

Nota 2: La 2º parte se toca seguida solo que falto espacio

e----------------------------------------------------------------I
B----------------------------------------------------------------I
G----------------------------------------------------------------I
D---------0---------------0---------------0-4-2-0---------0-4-2-0I
A-------2---------------2---------------2---------------2--------I
E-0-0-4-----x-x-x-0-0-4-----x-x-x-0-0-4-----------0-0-4----------I


e----------------------------------------------------------------I
B----------------------------------------------------------------I
G----------------------------------------------------------------I
D--------0-4-2-0---------0-4-2-0---------------------------------I
A------2---------------2-----------------------------------------I
E0-0-4-----------0-0-4-----------0-------------------------------I