MODIFICACION A LA TRANSCRIPCION DE
BENJAGOL (guitarrayamaha@hotmail.com)
**********************************************************************

Hola es la primera vez que ajo esto espero que os guste.

e||----------|-----------------|-----------------|
B||----------|-----------1-----|-----------1-----|
G||•------0--|--------------0--|--------------0--|
D||•---------|--3--2--0--------|--3--2--0--------|
A||---3------|-----------------|-----------------|
E||----------|-----------------|-----------------|

e||-----------------||---------------||
B||-----------------||---------------||
G||----------------•||---------------||
D||---3--2--3--0---•||---------------||
A||-----------------||----0----0---2-||
E||-----------------||---------------||

e||------------------------------|-------------------------------|
B||------------------------------|-------------------------------|
G||•-----------------------------|-------------------------------|
D||•-----3--2--0--------0--2--0--|------------------3--2---0-----|
A||---2-----------3--3-----------|-----0------0--0------------3--|
E||------------------------------|--3----3--3--------------------|

e||-----------|-----------|-------------------------------------||
B||-----------|-----------|-------------------------------------||
G||---0-------|-----------|------------------------------------•||
D||------0-0--|-----------|------3--2--0--------0--2--0--------•||
A||-----------|-------0---|---0-----------3--3-----------0—-2---||
E||-----------|---3-3-----|-------------------------------------||


e||------------------------||--------------||
B||--0--0--3--2--0---------||----------3---||
G||-----------------2—1---•||--------------||
D||-----------------------•||-3--2--0------||
A||------------------------||--------------||
E||------------------------||--------------||

Para preguntas escríbame un email.
Gracias.