Esta es el tab practiquen mucho.

e|-0-0-0-0-0-0-0-0|-0-0-0-0-0-0-0-0|
B|-0-0-1-1-2-2-1-1|-0-0-1-1-2-2-1-1|
G|-0-0-0-0-0-0-0-0|-0-0-0-0-0-0-0-0|
D|-2-2-2-2-2-2-2-2|-2-2-2-2-2-2-2-2|
A|-2-2-2-2-2-2-2-2|-2-2-2-2-2-2-2-2|
E|----------------|----------------|

e|-------------------------------------|
B|-------------------------------------|
G|-------------------------------------|
D|-------------------------------------|
A|-------------------------------------|
E|-0-2--2-2-2-0-0-0-0--3-3-3--3-2-2-2-2|

e|--------------------------------------------|
B|--------------------------------------------|
G|--------------------------------------------|
D|--------------------------------------------|
A|--------------------------------------------|
E|-0-2--2-2-2-0-0-0-0--3-3-3--3-2-2-2-2--2-1-0|

e|---------------||
B|---------------||
G|---------------||
D|-1-0-----------||
A|-----2-0--(2)--||
E|---------------||

El paréntesis significa que tienes
que hacer un efecto de vibración en
la nota que lo lleva.

Cualquier pregunta mi correo es:
 juan_del_barrio@hotmail.com