la cancion esta genial no esta muy cmpleta pero bale la pena

G---------------------------------
D---------------------------------
A-2-5--5-7-7--109-109-109-5-5-7-7-
E--------------------------------- (x7)

G---------------------------------
D---------------------------------
A-----5---------------------------
E-7-7---7-7-6-555-04567----------- (x3)

G---------------------------------
D---------------------------------
A-2-5--5-7-7--109-109-109-5-5-7-7-
E--------------------------------- (x4)

G---------------------------------------
D-------------------789------------789--
A-7---5-----567-789--------567-789------
E--------77-------------77--------------  (x2)

G---------------------------------
D---------------------------------
A-2-5--5-7-7--109-109-109-5-5-7-7-
E--------------------------------- (x4)

G---------------------------------------
D-------------------789------------789--
A-7---5-----567-789--------567-789------
E--------77-------------77-------------- (x2)

G---------------------------------
D-11-9----------------------------
A-------11-10-9-7-----------------
E-----------------77-99----------- (x2)

repito no esta completa es solo asta la parte antes del solo pero
espero q les guste le inverti un buen tiempo