ACORDES:> REm DO FA DO REm

Bueno, aqui teneis esta pedazo de canción de la banda
sonora de la pelicula "El Último Mohicano".
Podeis tocarlo con esta version:
http://www.youtube.com/watch?v=OaXwpJtIF5g
Creo que tambien esta al tono de la pelicula...aqui teneis:



Empieza el violin:
 Rem                         Do
|-----------------------     -------------------
|-----6-5---5-----------     -----5-5-8-5-5/3/5-
|---------7---7-5-7-5---     -5-5---------------
|-7-7-----------------8- x 2 ------------------- x 2
|-----------------------     -------------------
|-----------------------     -------------------

Fa                   Do                 Rem
-----------------------------------------------------------
-6-6-6-5-6-8-6-6-5---5-5-5---5-8-5-5---------------6-5-----
-------------------7-------7---------7-5-7-7-7-5-7-----7---
---------------------------------------------------------7-
-----------------------------------------------------------
-----------------------------------------------------------


---------------------------|
---------------6-5---5-----|
-5-7-7-7-7-5-7-----7---7-5-|   Se repite cuantas veces
---------------------------|       se quiera.
---------------------------|
---------------------------|



Aqui ya es con toda la orquestración:

 Rem          Do  Fa      Do   Rem
|-------------------5---------------|
|-6-5-------6-5-8-6---8-6-5-8-5-5---|
|-----7---7-----------------------7-| También se repite.
|-------7---------------------------|
|-----------------------------------|
|-----------------------------------|


Si tocais con el video que os he dicho, al final hace esto:

Pulsando cada nota varias veces:
|-13-12-10----10-13-12-15-13-17-15-13-12-15-12-12-10---|
|----------10------------------------------------------|
|------------------------------------------------------|
|------------------------------------------------------|
|------------------------------------------------------|
|------------------------------------------------------|


Bueno, cualquier duda, queja, sujerencia....
xabi_agirrezabala@yahoo.es
Hasta otra!!!