BUENO ESTE ES EL TEMA Q APARECE CASI AL PRINCIPIO
DE LA 1º PELICULA... ACA SUENAN UNA FLAUTA, UN
VIOLIN Y UN CONJUNTO DE CUERDAS Q HACEN CASI SIEMPRE
DE BASE, IGUAL ES TODO EN TABLATURA PARA LA VIOLA Y
SE LOS VOY A IR INDICANDO SOBRE EL TEMA Y LA BASE EN ACORDES
ARRIBA DE LA TABLATURA... ESPERO Q LES SIRVA

  0:05 FLAUTA
   Re                       Sol        Sim     La
e| ------------------------7-10-9------------
B| ----7-10-7---------7-10--------10-7-8-7---
G| 7-9--------9-7--7-9---------------------9—

   Re                             Sol  Sim     La  Re
e| ------------------------------7------------------
B| -----7-10-7--------------7-10---10-7-10-7--------
G| -7-9--------9-7-9-7—-7-9-----------------9—7-----

   0:28 VIOLIN
   Re             La         Sim        Sol      La
e| ----------------------------------------------
B| -----7--7-7-7-10-7----------------------------
G| -7-9---------------7/9-------6-6-7------------
D| ------------------------7-9--------9------7---
A| -------------------------------------9-9----7-
E| ----------------------------------------------

                                0:43           (EN EL SEG 0:43 EMPIEZA
        D       G      A        Bm          G  (EL CONJUNTO DE CUERDAS
e| ----------------------------------------10-9(CON LA NOTA D JUSTO
B| --------7-7-10-7-----------------7-7-10-----(CUANDO TERMINA EL
G| --6-7-9----------9-7-9-6—6-7-7-9------------(VIOLIN...
D| 7----------------------------9--------------
A| --------------------------------------------
E| --------------------------------------------

    La          Sim        La
e| ----------------------------
B| 10-7-8-7--------7-7-8-10----
G| ---------9--7-9----------9—-

   0:54 VIOLIN
    Re          Mi              Fa#7                Re  Sim  Sol  La
e| ----------------------------------------------------------------
B| -----7-7-7-7---7-9-9-9-9-7-9-11-11-11-11-11---------------------
G| -7-9---------9--------------------------------------------------


   1:18 CONJUNTO DE CUERDAS
   Re      La      Sim     Sol    La
e| -------------------------------|
B| -------------------------------|
G| -------------------------------|
D| ---7-7-------------------------| x2
A| -5--------7-7----9-9----5---7--|
E| --------5--—---7------3---5----|

1:36                             1:44
Re                  Sol           La          Sim
e| ----------7----7-9-10----10----12--------8-----7--10-7-10-12-
B| ---7---7-----7--------10----10------9-11---7-9---------------
G| -7---7-------------------------------------------------------

(AL 1:44 EMPIEZA OTRA VEZ EL CONJUNTO DE CUERDAS...

         Sol                  La    Re
e| ----9-10-9------------------------
B| -12--------10---------------------
G| --------------11-12-11-9-11-9-7-7-

  1:57
    Re            La        Sim        Sol    La         Re
e| -----------------------------------------------------
B| -----7--7-7-7-10-7-----------------------------------
G| -7-9---------------7/9-----6-6-7---------------------
D| -----------------------7-9-------9-----7-------------
A| -----------------------------------9-9---7-7-9-------
E| -----------------------------------------------10-10-

(AL 1:57 EMPIEZA OTRA VEZ EL VIOLIN...

   2:08
         La    Sim     Sol   La
e| ------9---------------------
B| -7-10-----------------------
G| ----------------------------
D| ----------------------------
A| --------7-7---9-9---5---7---
E| ------5-----7-----3---5-----

(LAS PRIMERAS 3 NOTAS LAS HACE EL VIOLIN,
(EL RESTO LO HACE EL CONJUNTO DE CUERDAS...

(AL 2:15 REPITE TODA LA PRIMERA PARTE DE FLAUTA
(CON UN PULSO MAS LENTO Y TERMINA AL 2:55...

NADA MAS, MUCHISIMAS GRACIAS POR TODO Y POR FAVOR VOTEN...
MUCHA SUERTE...