ACORDES:> C F Dm G Bb

(sin instrumento)
Nants ingonyama bagithi baba
Sithi uhm ingonyama
Nants ingonyama bagithi baba
Sithi uhm ingonyama
Siyo nqoba
Ingonyama nengw' enamabala...

  Do                      Fa
Desde el día que al mundo llegamos
   Rem                    Sol
Y nos ciega el brillo del sol
  Do                      Rem
Hay mucho más para ver de lo que se puede ver
  La#                     Sol
Más para hacer de lo que da el vigor

Son muchos más los tesoros
De los que se podrán descubrir
Mas bajo la luz del sol jamás habrá distinción
Grandes y chicos han de convivir

   Do                    La#
En el ciclo sin fin que nos mueve a todos
   Fa                    Rem       Sol
Y aunque estemos solos, debemos buscar
   Do                    Rem       La#
Hasta encontrar nuestro gran legado
   Do           Sol        Fa   Do
En el ciclo, el ciclo sin fin

Solo de flauta (C,Dm,Bb,G)

E:--------------------------------------------------12—-11^12
B:-------12----13--12-12-----------12------------12----------
G:-12-14-----12----------14--12-14----12------14-------------
D:---------------------------------------12------------------
A:-----------------------------------------------------------
E:-----------------------------------------------------------



E:-12-14-16-17-16-14-12-14-16-14—12^16-12-12-12-17--
B:--------------------------------------------------
G:--------------------------------------------------
D:--------------------------------------------------
A:--------------------------------------------------
E:--------------------------------------------------

E:-19-17-16-16-14--12-14-16-12------------12—11^12-11-12
B:-----------------------------14---12-14---------------
G:------------------------------------------------------
D:------------------------------------------------------
A:------------------------------------------------------
E:------------------------------------------------------

E:-12-14-16-17-16-14-12-14-16-14------------------------
B:------------------------------------------------------
G:------------------------------------------------------
D:------------------------------------------------------
A:------------------------------------------------------
E:------------------------------------------------------

Es un ciclo sin fin que nos mueve a todos
Y aunque estemos solos, debemos buscar
Hasta encontrar nuestro gran legado
En el ciclo, el ciclo sin fin







ahi termina
busque pero solamente encontre la version de español
de españa asi que saque la de español latino

agregue el solo de flauta  para guitarra si lo quieren