____________________________________________________
|                                                   |
|                   L E E  E S T O                  |
|___________________________________________________|
|                                                   |
| Antes de copiar esta transcripción a un archivo   |
| de texto, debes seleccionar la fuente tipográfica |
|  COURIER NEW  o  LUCIDA CONSOLE  , así no se te   |
| moverán los acordes ni los punteos de su posición |
| original y podrás tocar la canción correctamente. |
|___________________________________________________|

    ***********************************************
    * =========================================== *
    * ========== *FANTASMA DE LA ÓPERA* ========= *
    * ===DEL MUSICAL *EL FANTASMA DE LA ÓPERA*=== *
    * ==============(Tono Original)============== *
    * ==== (Transcripción: Rodrigo González) ==== *
    * =========================================== *
    ***********************************************

=INTRO=

·GUITARRA: se tocan las sgtes CUARTAS (dentro de LA#,LA,SOL#,SOL y FA#)·
E-------------------------------------------------------------------
B-------------------------------------------------------------------
G-------------------------------------------------------------------
D---8-------8-7-6-5-4------4-5-6-7-8------8-7-6-5-4------4-5-6-7-8--
A---8-------8-7-6-5-4------4-5-6-7-8------8-7-6-5-4------4-5-6-7-8--
E-------------------------------------------------------------------

E-----------------------------------------------------------
B-----------------------------------------------------------
G-----------------------------------------------------------
D---8-7-6-5-4------4-5-6-7-8------8-7-6-5-4------4-5-6-7-8--
A---8-7-6-5-4------4-5-6-7-8------8-7-6-5-4------4-5-6-7-8--
E-----------------------------------------------------------

(GUITARRA: se toca el siguiente punteo, con la base de acordes)
 La#m     Re#m    Sol#    Do#   La#m     Re#m    Sol#    Do#
E------------------------------  -----------------------------
B------------------------------  -----------------------------
G------------------------------  -----------------------------
D------8---6------------6------  -----8---6------------6------
A----8---8----9-9----6---6-8---  ---8---8----9-9----6---6-8---
E------------------------------  -----------------------------

 La#m    Re#m        Sol#  Do#      La#m       Fa#     Fa     Fa#  La#m
E------------------------------- ----6----4------------------------------
B---------6-----------9----6---- --6--------7-6-4------------------------
G-------6----8-8----8----8------ -----------------6-5-3-2----------------
D-----8------------------------- ----------------------------4-4--3-3----
A---8--------------------------- ----------------------------------------
E------------------------------- ----------------------------------------

(La melodía sube un semitono: de LA#m a SIm)
 Sim     Mim      La      Re         Sim     Mim      La      Re
E------------------------------------ -------------------------------
B------------------------------------ -------------------------------
G-----4---2--0-0-------2------------- ----4---2--0-0-------2---------
D---4---4------------2---2-4--(2)(4)- --4---4------------2---2-4-----
A------------------------------------ -------------------------------
E------------------------------------ -------------------------------

 Sim     Mim      La        Re     Sim        Sol     Fa#     Sol   Sim
E---------2---0-0-----0-5--0-2- ----7----5------------------------------
B-------3---------------------- --7--------8-7-5------------------------
G-----4------------------------ -----------------7-6-4-3----------------
D---4-------------------------- -----------------------------5-5---4-4--
A------------------------------ ----------------------------------------
E------------------------------ ----------------------------------------

·GUITARRA: se tocan las sgtes CUARTAS (dentro de SI,LA#,LA,SOL# y SOL)·
E----------------------------------------------------------
B----------------------------------------------------------
G---4-3-2-1-0------0-1-2-3-4------4-3-2-1-0------0-1-2-3---
D---4-3-2-1-0------0-1-2-3-4------4-3-2-1-0------0-1-2-3---
A----------------------------------------------------------
E----------------------------------------------------------

·SUBE un tono y medio: de SIm a REm, y comienza la canción·
   REm      REm DO# DO SI LA#    (SOL#LA#)    LA# SI DO DO# REm
E----------------------------------------------------------------
B----------------------------------------------------------------
G---7--------7---6---5--4--3------(1)-(3)------3---4--5--6---7---
D---7--------7---6---6--4--3------(1)-(3)------3---4--5--6---7---
A----------------------------------------------------------------
E----------------------------------------------------------------

=VOZ CANTADA=
(Christine)
Rem           Solm     Do          Fa
    EN SUEÑOS ME CANTÓ... Y VINO A MÍ,
Rem           Solm      Do          Fa
    MI NOMBRE PRONUNCIÓ... YO LO SENTÍ,
Rem            Solm      Do             Fa
    ESTO ES UN SUEÑO MÁS... O AL FIN TE VI...
       Rem                  La#        La7           La#  Rem
    FANTAAAAAAAAAASMA DE LA ÓPERA YA ESTÁS..... YA ESTÁS AQUÍ...

E-------------------------------------------------
B-------------------------------------------------
G---7-------7-6-5-4-3------(1)-(3)-----6-5-4-3-0--
D---7-------7-6-6-4-3------(1)-(3)-----6-5-4-3-0--
A-------------------------------------------------
E-------------------------------------------------
(El Fantasma)
Solm          Dom        Fa           La#
    SI CANTAS JUNTO A MÍ... MI GRAN PODER...
Solm           Dom       Fa           La#
    MI EMBRUJO SOBRE TI..... PODRÁ CRECER...
Solm         Dom       Fa          La#
    QUERRÁS HUIR DE MÍ... DEJARME ATRÁS...
       Solm                   Re#              Re7       Re#   Solm
    LA SOOOOOOOOOOMBRA DEL FANTASMA SIEMPRE EN TI..... EN TI, VERÁS...

E------------------
B------------------
G------------------
D---5-4-3-2-1---0--
A---5-4-3-2-1---0--
E------------------
(Christine)
Mim              Lam       Re            Sol
    QUIEN VIÓ TU ROSTRO YA... CON MIEDO HUYÓ...
Mim           Lam     Re         Sol
    YO SOY TU MÁSCARA... TU GENIO YO...(canta el Fantasma.)
(JUNTOS)
Mim          Lam          Re          Sol
    TU ESPÍRITU Y MI VOZ... UN MISMO AMOR...
       Mim                  Do        Si7        Do     Mim
    FANTAAAAAAAAAASMA DE LA ÓPERA YA ESTÁS... EN MI INTERIOR...
                                             (en tu interior)
(Christine)
       MIm                    DO   MIm/do
    ES EL..... FANTASMA DE LA ÓOOOOPERA...
       MIm                    DO   MIm/do
    EN MÍ..... FANTASMA DE LA ÓOOOOPERA...

(El Fantasma)
Fam          La#m     Re#           Sol#
    NO TEMAS YA DE MÍ... MI HERMOSA FLOR...
Fam             La#m    Re#            Sol#
    BUSCÁ EN TU CORAZÓN... SABRÁS QUIEN SOY,
(JUNTOS)
Fam            La#m   Re#         Sol#
    MISTERIO Y MÚSICA... YO, TU SEÑOR(tú mi señor)
       Fam                  Do#        Do7       Do#    Fam
    FANTAAAAAAAAAASMA DE LA ÓPERA YA ESTÁS... EN MI INTERIOR...

=FINAL=
   (Christine)                        (canta mi ángel...)
       Fam                    Do#
    ES EL..... FANTASMA DE LA ÓOOOOOOPERA...
    Fam                          Do#
    AAAAAAAH... AH AH AH AH... AH AH... AH AH AAAAAAAH...
    Solm                          Re#
    AAAAAAAH... AH AH AH AH... AH AH... AH AH AAAAAAAH...
    Solm                          Re#
    AAAAAAAH... AH AH AH AH... AH AH... AH AH AAAAAAAH...
                                     (...canta mi ángel de música)
    Lam                           Fa
    AAAAAAAH... AH AH AH AH... AH AH... AH AH AAAAAAAH...
    LAm       (canta para mí...!) FA
    AAAAAAAAAAAAAAAAAAAAAAAAAH... AAAAAAAAAAAAAAAAAAAH...
    Lam                           Lam
    AAAAAAAAAAAAAAAAAAAAAAAAAH... AAAAAAAAAAAAAAAAAAAH...

 ~~~~~~~~~~~~~~~~~~~~~~~~~~~~~~~~~~~~~~~~~~~~~~~~~~~~~~~~~~~~~~~~~~~~~
 ==============================| F I N |==============================
 ~~~~~~~~~~~~~~~~~~~~~~~~~~~~~~~~~~~~~~~~~~~~~~~~~~~~~~~~~~~~~~~~~~~~~

  __________________________________________________________________
 |  (Este punteo corresponde a los juegos de voz                    |
 |  que hace Christine en la melodía =FINAL=)                       |
 |                                                                  |
 |  Fam                   Do#      Solm                  Re#        |
 | E-----------------------------  --6----5-6-5-3--5-3--1-3--6--    |
 | B--9----8-9-8-6--8-6----6--9--  -----------------------------    |
 | G---------------------8-------  -----------------------------    |
 | D-----------------------------  -----------------------------    |
 | A-----------------------------  -----------------------------    |
 | E-----------------------------  -----------------------------    |
 |                                                                  |
 |   Lam                  Fa       Lam     Fa       Lam     Lam     |
 | E--8----7-8-7-5--7-5----5--8-- --8-------8----- --8-------12---- |
 | B---------------------8------- ---------------- ---------------- |
 | G----------------------------- ---------------- ---------------- |
 | D----------------------------- ---------------- ---------------- |
 | A----------------------------- ---------------- ---------------- |
 | E----------------------------- ---------------- ---------------- |
 |__________________________________________________________________|
  _________________________________________________________________
 |                                                                 |
 | Aquí te van algunas indicaciones básicas para tocar la canción: |
 |_________________________________________________________________|
 |                                                                 |
 | Para que el tema suene bien, te recomiendo ejecutar los acordes |
 | y los cambios de acorde en el mismo momento en que aparecen,por |
 | eso logré que  la ubicación de cada acorde  sea la precisa, tal |
 | como puse los acordes  sobre cada sílaba tonal  de cada verso y |
 | sobre cada punteo. Así, te será menos difícil  ubicar el acento |
 | musical y además, obtendrás  melodía  y armonía similares a las |
 | versiones originales de la obra musical El Fantasma de la Ópera |
 |_________________________________________________________________|
 |                       |                                |
 |       C L A V E       |     CUERDAS de la GUITARRA:    |
 | Universal - Americana |                                |
 |                       |  E---> es Mi AGUDO (1 cuerda)  |
 | Do  =============== C |  B---> es Si       (2 cuerda)  |
 | Re  =============== D |  G---> es Sol      (3 cuerda)  |
 | Mi  =============== E |  D---> es Re       (4 cuerda)  |
 | Fa  =============== F |  A---> es La       (5 cuerda)  |
 | Sol =============== G |  E---> es Mi GRAVE (6 cuerda)  |
 | La  =============== A |                                |
 | Si  =============== B |                                |
 |_______________________|________________________________|

  ACORDES
  USADOS     (Cuerdas)
    |        E A D G B E   Los números corresponden al
    |        | | | | | |   traste de la guitarra donde
    |        | | | | | |   se pulsa la cuerda señalada,
    |        | | | | | |   la letra X significa que no
    |        | | | | | |   se pulsa la cuerda indicada.
    |        | | | | | |
    DO    :  X 3 2 0 1 0  ( Do Mayor   )
    DO7   :  X 3 2 3 1 0  ( Do Mayor 7 )
    DOm   :  X 3 5 5 4 3  ( Do menor   )
             | | | | | |
    DO#   :  X 4 6 6 6 4  ( Do Mayor Sostenido   )
    DO#m  :  X 4 6 6 5 4  ( Do menor Sostenido   )
             | | | | | |
    RE    :  X X 0 2 3 2  ( Re Mayor   )
    RE7   :  X X 0 2 1 2  ( Re Mayor 7 )
    REm   :  X X 0 2 3 1  ( Re menor   )
             | | | | | |
    RE#   :  X 6 8 8 8 6  ( Re Mayor Sostenido   )
    RE#   :  X X 5 3 4 3  ( Re Mayor Sostenido   )
    RE#7  :  X 6 8 6 8 6  ( Re Mayor Sostenido 7 )
    RE#m  :  X 6 8 8 7 6  ( Re menor Sostenido   )
             | | | | | |
    MI    :  0 2 2 1 0 0  ( Mi Mayor   )
    MIm   :  0 2 2 0 0 0  ( Mi menor   )
    MIm/do:  0 3 2 0 0 0  ( Mi menor con bajo en Do)
             | | | | | |
    FA    :  1 3 3 2 1 1  ( Fa Mayor   )
    FAm   :  1 3 3 1 1 1  ( Fa menor   )
             | | | | | |
    FA#   :  2 4 4 3 2 2  ( Fa Mayor Sostenido   )
    FA#m  :  2 4 4 2 2 2  ( Fa menor Sostenido   )
             | | | | | |
    SOL   :  3 2 0 0 0 3  ( Sol Mayor   )
    SOLm  :  3 5 5 3 3 3  ( Sol menor   )
             | | | | | |
    SOL#  :  4 6 6 5 4 4  ( Sol Mayor Sostenido   )
    SOL#m :  4 6 6 4 4 4  ( Sol menor Sostenido   )
             | | | | | |
    LA    :  X 0 2 2 2 0  ( La Mayor   )
    LA7   :  X 0 2 0 2 0  ( La Mayor 7 )
    LAm   :  X 0 2 2 1 0  ( La menor   )
             | | | | | |
    LA#   :  X 1 3 3 3 1  ( La Mayor Sostenido   )
    LA#m  :  X 1 3 3 2 1  ( La menor Sostenido   )
             | | | | | |
    SI    :  X 2 4 4 4 2  ( Si Mayor   )
    SI7   :  X 2 1 2 0 2  ( Si Mayor 7 )
    SIm   :  X 2 4 4 3 2  ( Si menor   )
  ____________________________________________________
 |                                                    |
 | Equivalencia de notas sostenidas con notas bemoles |
 |____________________________________________________|
 |                                                    |
 |  DO# = REb  <----> ( Do  sostenido  =  Re  bemol ) |
 |  RE# = MIb  <----> ( Re  sostenido  =  Mi  bemol ) |
 |  FA# = SOLb <----> ( Fa  sostenido  =  Sol bemol ) |
 | SOL# = LAb  <----> ( Sol sostenido  =  La  bemol ) |
 |  LA# = SIb  <----> ( La  sostenido  =  Re  bemol ) |
 |____________________________________________________|

...Un saludo para mi señora, Karen San Martín. Te amo mucho mi vida.
Mi nombre es Rodrigo, por cualquier consulta, escríbeme en mi fotolog,
o enviame un mail, no hay problema. Gracias por visitar esta canción.

       +EN MEMORIA DE MI HERMANITA ANDREA SUSANA MUÑOZ ALARCÓN+
                (*Abril 20,1989 - Diciembre 10,2004+)
          *Que el Señor te tenga en su gloria hermanita mía*

                     *Que el Señor les Bendiga*

MAYO, 2007                                                    ...RODRIGO
========================www.fotolog.com/baladista=======================
=====================baladistacancionero@hotmail.com====================