ACORDES:> A E Bm D

Casi Milagros
Jose Maria Guzman

Intro:
----------------------------------|
----------------------------------|
----------------------------------|
----------------------------------|
---------------------------3------|
---9--5--9--7--5----0---5---------| 2x


      La          Mi
Deja ya, De cargar com ese peso
      Sim        Re
Ya veras, se acaba el mal momento
       La            Mi
Deja entrar, que ser claro te defina
      Sim           Re                         La
Y al final, solo aquello que sentimos durara


Deja ya, los problemas que deprimen
Brilla mas, y has que todo se ilumine
No importa que, tenga yo que ser tu apoyo
Esta bien, lo que sientes es la única verdade.

Coro 1:
La       Mi          Sim               Re
La vida es, es un instante de maravilla
     Mi         La                     Mi               Sim
Que nos hace cambiar, y el tiempo se va en los instantes
           Re   Mi     La               Mi
Los instantes, no se van lo que haga mal
              Sim                   Re                  La
Se puede corregir mas no voy a olvidar aquello que senti


 Intro (A-E-Bm-D)


Verso 2: (same chords)
       La       Mi
Sueltalo, ese peso de tu espalda
     Sim      Re
Quitalo, lo malo ya há pasado
        La            Mi
No esta mal, que la luz defina tu alma
     Sim         Re                      La
Al final, el recuerdo es privado, personal


Coro 2:

La        Mi            Sim
 La vida da, pequenas cosas,
        Re         Mi            La
casi milagros, caprichos del afan
           Mi               Sim
Todos se van, pero esas cosas
            Re Mi     La
no las puedes olvidar

Intro

Deja ya, que se alejen los problemas
Brillara, la amistad entre las venas
Y me da igual, si soy yo quien te conforta
De verdad, solo el corazon importa al final.


La        Mi            Sim
 La vida da, pequenas cosas,
        Re         Mi            La
casi milagros, caprichos del afan
           Mi               Sim
Todos se van, pero esas cosas
            Re Mi     Sim
no las puedes olvidar


Bridge:

Sim            La                  Mi
 No hay que lamentar cada equivocacion
                 Sim     Re            La
 Pues solo va quedar em ti, la sensacion.

         Sim        Re       Mi        La
Pequeñas cosas, Casi milagros, Caprichos del asar
(Si caprichos del asar)
        Mi              Sim      Re                Mi    La
Todo se va, Pero los milagros, Tú no los puedes olvidar
Si aaaah



Outro:

-----------------------------------------------------------|
-----------------------------------------------------------|
-----------------------------------------------------------|
-----------------------------------------------------------|
---------------------------5---3--5---7---9---10---12---14-|
---9--5--9--7--5----0---5----------------------------------|