Esta musica la toca una flauta, pero en guitarra tambien 
se oye de lujo. Se lo dedico a los corazones sensibles.
 Para ti Charis.

E  /---3-----------------------------------3--/
A  /-----1--3---------------3--2--2----3------/
D  /-----------1--0---1--0--------------------/
G  /------------------------------------------/
B  /------------------------------------------/
Em /------------------------------------------/

E  /---3--------------------------------------/ 
A  /-----1--3--------------3--2--2---3--------/
D  /-----------1--0--1--0---------------------/
G  /------------------------------------------/
B  /------------------------------------------/
Em /------------------------------------------/